Суббота, 02.12.2023, 19:07
Приветствую Вас Гость

Тексты и аккорды



Главная » Тексты и аккорды » Р » Розенбаум Александр

Не обязательно то, что все представленные аккорды и табы, правильные. Мы все люди, каждый играет и подбирает так как ему нравится. Если знаете правильный или другой вариант, то напишите в коментарий без всяких придирок, мы будем очень рады!
Вечерняя застольная
31.10.2009, 15:42
e|------3---/5---/6---\5--\3-|------5----/6----/8----\6----\5-|
H|---------------------------|--------------------------------|
G|----3---/5---/7---\5---\3--|----5---/7----/8----\7----\5----|
D|---------------------------|--------------------------------|
A|---------------------------|-0------------------------------|
E|-3-------------------------|--------------------------------|

e|------6---/8---/10---\8----\10-|------10----/11- --/13----\11----/10-|
H|-------------------------------|-------------------------------------|
G|----7---/8---/10---\8---\10----|----10---/12----/13----\12----/10----|
D|-5-----------------------------|-------------------------------------|
A|-------------------------------|-10----------------------------------|
E|-------------------------------|-------------------------------------|

e|---------------------|----------------------------------------|
H|--------4------------|-------3h4------3h4------3h4------------|
G|------5---5----------|-----5-----5--------5---------5---------|
D|----5-------5--------|---4---------4--------4-----------------|
A|-0-------------------|-5--------------------------------------|
E|----------------2----|----------------------------------------|

Gm Cm6/A D7
Черт с ними, за столом сидим, поем, пляшем,
Gm Dm7-5 G7
Поднимем эту чашу за детей наших,
Cm D7 Gm7 Gm7/f Eb9
И скинем с головы иней,
Cm6/A D7 Gm G7
Поднимем, поднимем.
Cm6/A D7 Gm7 Gm7/f Eb9
И скинем с головы иней,
Cm6/A D7 Gm
Поднимем, поднимем.

За утро, и за свежий из полей ветер, Gm Cm6/A D7
За друга, не дожившего до дней этих, Gm Dm7-5 G7
За память, что живет с нами, Cm D7 Gm7 ~ Gm7/f Eb9
Затянем, затянем. Cm6/A D7 Gm ~ G7
За память, что живет с нами, Cm D7 Gm7 ~ Gm7/f Eb9
Затянем, затянем. Cm6/A D7 Gm

Бог в помощь всем живущим на земле людям, Gm Cm6/A D7
Мир дому, где собак и лошадей любят, Gm Dm7-5 G7
За силу, что несут волны, Cm D7 Gm7 ~ Gm7/f Eb9
По полной, по полной. Cm6/A D7 Gm ~ G7
За силу, что несут волны, Cm D7 Gm7 ~ Gm7/f Eb9
По полной, по полной Cm6/A D7 Gm

Родные, нас живых еще не так мало,
Поднимем за удачу на тропе шалой,
Чтоб ворон да не по нам каркал, по чарке, по чарке...
Чтоб ворон да не по нам каркал, по чарке, по чарке.

(повтор первого куплета)

IV I V
e|---|-x-|---|---|Cm6/A e|-x-|---|---|---| Dm7-5 X|---|---|---|---| Eb9
H|-x-|---|---|---| H|-x-|---|---|---| H|---|-x-|---|---|
G|---|-x-|---|---| G|-x-|---|---|---| G|---|-x-|---|---|
D|---|-x-|---|---| D|---|---|---|---| D|-x-|---|---|---|
A|---|---|---|---| X|---|---|---|---| A|---|-x-|---|---|
X|---|---|---|---| X|---|---|---|---| X|---|---|---|---|

Добавил: Mихайло |
Просмотров: 4220 | Рейтинг: 0.0/0 |
Не обязательно то, что все представленные аккорды и табы, правильные. Мы все люди, каждый играет и подбирает так как ему нравится. Если знаете правильный или другой вариант, то напишите в коментарий без всяких придирок, мы будем очень рады!
Всего комментариев: 0
Добавлять комментарии могут только зарегистрированные пользователи.
[ Регистрация | Вход ]
Форма входа
Логин:
Пароль:
Поиск
Пользовательского поиска
Друзья сайта

Сейчас на сайте

Онлайн всего: 1
Гостей: 1
Пользователей: 0
Наш опрос
Хотели бы вы видеть живые online выступления наших гитаристов
1. да
2. смотря чьё выступление
3. может быть
4. нет
Всего ответов: 114
Мини-чат
Все права на материалы, представленные на сайте, принадлежат их законным владельцам (правообладателям). Copyright www.maroz.de © 2023 |