Пятница, 24.05.2024, 05:58
Приветствую Вас Гость

Тексты и аккорды



Главная » Тексты и аккорды » К » КИНО

Не обязательно то, что все представленные аккорды и табы, правильные. Мы все люди, каждый играет и подбирает так как ему нравится. Если знаете правильный или другой вариант, то напишите в коментарий без всяких придирок, мы будем очень рады!
В категории объявлений: 18
Показано объявлений: 1-18


Сортировать по: Дате · Названию · Рейтингу · Комментариям · Просмотрам
INTRO
Bass:
G|-----------------------------------------------------------------|
D|-----------------------------------------------0-----------------|
A|-----------------3-----2---------0-----0---2-3-------3-----------|
E|---0-----0---2-3-------------------------------------------------|

G|-----------------------------------------------------------------|
D|-----------------------------------------------0-----------------|
A|-----------------3-----2---------0-----0---2-3---3---3-2---0-----|
E|---0-----0---2-3---------------------------------------------3-2-|

VERSE1
Em, G, H7
Em, C, H7
Bass:
G|-----------------------------------|-----------------|
D|-----------------------------------|-----------------|
A|-------------------------2-2---2-2-|-----------3---2-|
E|-0-0---0-0---3-3---3-3-------------|-0-0---2-3-------|

CHORUS
Em, G, A
Em, D, C
Main guitar:
E|-----------------------------------------------------------------| 
B|-----------------------------------------------------------------|  |
G|-x-9-x-x-9-9-9-9-x-9-x-x-9-9-9-9---------------------------------|  |
D|-x-9-x-x-9-9-9-9-x-9-x-x-9-9-9-9-x-5-x-x-5-5-5-5-x-7-x-x-7-7-7-7-|  |
A|-x-7-x-x-7-7-7-7-x-7-x-x-7-7-7-7-x-5-x-x-5-5-5-5-x-7-x-x-7-7-7-7-|  |
E|---------------------------------x-3-x-x-3-3-3-3-x-5-x-x-5-5-5-5-|  |
Bass:                                                                 |
G|-----------------------------------------------------------------|  |
D|-----------------------------------------------------------------|  |
A|-----------------------------------------------------------------|  |
E|-0-0-0-0-0-0-0-0-0-0-0-0-0-0-0-0-3-3-3-3-3-3-3-3-5-5-5-5-5-5-5-5-|  |
                                                                       >2 times
Main guitar:                                                          |
E|-----------------------------------------------------------------|  |
B|-----------------------------------------------------------------|  |
G|-x-9-x-x-9-9-9-9-x-9-x-x-9-9-9-9-x-7-x-x-7-7-7-7-x-5-x-x-5-5-5-5-|  |
D|-x-9-x-x-9-9-9-9-x-9-x-x-9-9-9-9-x-7-x-x-7-7-7-7-x-5-x-x-5-5-5-5-|  |
A|-x-7-x-x-7-7-7-7-x-7-x-x-7-7-7-7-x-5-x-x-5-5-5-5-x-3-x-x-3-3-3-3-|  |
E|-----------------------------------------------------------------|  |
Bass:                                                                 |
G|-----------------------------------------------------------------|  |
D|-----------------------------------------------------------------|  |
A|---------------------------------5-5-5-5-5-5-5-5-3-3-3-3-3-3-3-3-|  |
E|-0-0-0-0-0-0-0-0-0-0-0-0-0-0-0-0---------------------------------| /

INTRO

VERSE2

CHORUS

OUTRO
Em, F#m, G, Am
Solo:
E|-----------------------------------------------------------------|
B|-----------------------------------------------------------------|
G|---------0-0---------------------0-0-0-0-4-4-0-0-2-2-2-2-2-2-2-2-|
D|-2-2-2-2-----2-2-4-4-4-4-4-4-4-4---------------------------------|
A|-----------------------------------------------------------------|
E|-----------------------------------------------------------------|

 Em
 Постой, не уходи!
  G
 Мы ждали лета - пришла зима.
  H7
 Мы заходили в дома,
                          Em C H7
 Но в домах шел снег.
 Мы ждали завтрашний день,
 Каждый день ждали завтрашний день.
 Мы прячем глаза за шторами век.
 
            Em
         В наших глазах крики Вперед!
            G                 A
         В наших глазах окрики Стой!
            Em
         В наших глазах рождение дня
       D             C
         И смерть   огня.
         В наших глазах звездная ночь,
         В наших глазах потерянный рай,
         В наших глазах закрытая дверь.
         Что тебе нужно? Выбирай!
 
 Мы хотели пить, не было воды.
 Мы хотели света, не было звезды.
 Мы выходили под дождь
 И пили воду из луж.
 Мы хотели песен, не было слов.
 Мы хотели спать, не было снов.
 Мы носили траур, оркестр играл туш...
 
         В наших глазах крики Вперед!
         В наших глазах окрики Стой!
         В наших глазах рождение дня
         И смерть огня.
         В наших глазах звездная ночь,
         В наших глазах потерянный рай,
         В наших глазах закрытая дверь.
         Что тебе нужно? Выбирай!
КИНО | Просмотров: 3625 | Дата: 26.05.2012 | Комментарии (0)

Вступление: /C E/H Am G  C Am C Am/

          C                    B              Am
  Я встретил ее, я встретил ее, она шла в кино,
     F                          G                    C  G
  И я пошел следом, я рядом купил билет.
            C                        B                            Am
  И я подумал о том, что она может быть для меня сестрой,
             F                       G                       C  G
  И как раз в это время в зале погас весь свет.

                   C                                                      Am  G Am
     Ах, эта братская братская братская братская любовь.
           F                  G
     Живет во мне, горит во мне.
                   C                                                      Am  G Am
     Ах, эта братская братская братская братская любовь.
           F           G                          C /C Am C Am/
     Живет во мне, сожжет меня дотла.

      C                           B                              Am
  И мы были в зале, и герои всех фильмов смотрели на нас.
       F                  G
  Играли для нас, пели для нас.
    C                          B                          Am
  И я ей сказал, что она лучше всех и что я очень рад.
         F                         G                           C  G
  А она улыбнулась и сказала, что я ей как брат.

                   C                                                      Am  G Am
     Ах, эта братская братская братская братская любовь.
           F                  G
     Живет во мне, горит во мне.
                   C                                                       Am  G Am
     Ах, эта братская братская братская братская любовь.
           F           G                          C
     Живет во мне, сожжет меня дотла.
         Am  /G Am G F G C Am G Am/
     До тла,
           F           G                           C /C Am G Am/
     Живет во мне, сожжет меня до тла,
           F                  G           /C Am G Am G/
     Живет во мне, горит во мне
           F           G                           C
     Живет во мне, сожжет меня до тла…
КИНО | Просмотров: 2617 | Дата: 26.05.2012 | Комментарии (0)

    A                  F#m
E-------------|
B----------2--|
G|--2------2--2--4--2-----|
D-------------|
A-------------|
E-------------|

    A                  F#m
E-------------|
B|--5------0--2--3--2-----|
G----------2--|
D-------------|
A-------------|
E-------------|

    E                 A
E------------|
B|--5--5--3--2--3--2-----|
G---------2--|
D------------|
A------------|
E------------|


 A                                                 F#m
Тот кто в пятнадцать лет убежал из дома,
   A                                                     F#m
Вряд ли поймет того кто учился в спецшколе.
 A                                                  F#m
Тот у кого есть хороший жизненый план,
   A                                             F#m
Вряд ли будет думать о чем-то другом.


Мы пьем чай в старых квартирах,
Ждем лета в старых квартирах.
В старых квартирах, где есть свет,
Газ, телефон, горячая вода, радиоточка,
Пол, паркет, санузел раздельный,
Дом кирпичный, одна семья,
Две семьи, три семьи,
Много подсобных помещений.
Первый и последний не предлагать.
Рядом с метро, центр.


Все говорят, что мы вместе
Все говорят, но немногие знают в каком.
А из наших труб идет необычный дым
Стой! Опасная зона! Работа мозга!

Бошетунмай...
КИНО | Просмотров: 2588 | Дата: 26.05.2012 | Комментарии (0)

  D#m             B                   D#m
В этом мотиве есть какая-то фальшь,
      F#                 C#            D#m
Но где найти тех, что услышат ее?
Подросший ребенок, воспитанный жизнью за шкафом,
Теперь ты видишь Солнце, возьми - это твое!
F#                      C#
Я объявляю свой дом
                   D#m
Безъядерной зоной!
Я объявляю свой двор                       
Безъядерной зоной!         
Я объявляю свой город
Безъядерной зоной!
Я объявляю свой...

Как не прочны стены наших квартир,
Но кто-то один не подставит за всех плечо.
Я вижу дом, я беру в руки мел,
Нет замка, но я владею ключом.
КИНО | Просмотров: 2487 | Дата: 26.05.2012 | Комментарии (0)

Intro
                                                  Repeat 3 times
e|-2-2-2--2--2-2--2-2--2-2-2--2-2--0----0--0--0-0----------------------------
H|-3-3-3--3--5-3--5-3--5-3-3--5-3--2----2--3--3-2----------------------------
G|-2-2-2--2--2-2--2-2--2-2-2--2-2--2----2--2--2-2----------------------------
D|-4-4-4--4--4-4--4-4--4-4-4--4-4--2----2--2--2-2----------------------------
A|-2-2-2--2--2-2--2-2--2-2-2--2-2--0----0--0--0-0----------------------------
E|---------------------------------------------------------------------------

e|-2-2-2--2--2-2--2-2--2-2-2--2-2---/5--3--0^3-------------------------------
H|-3-3-3--3--5-3--5-3--5-3-3--5-3---/5--3--0^3--3/5-3------------------------
G|-2-2-2--2--2-2--2-2--2-2-2--2-2---------------2/4-2------------------------
D|-4-4-4--4--4-4--4-4--4-4-4--4-4--------------------------------------------
A|-2-2-2--2--2-2--2-2--2-2-2--2-2--------------------------------------------
E|---------------------------------------------------------------------------

Проигрыш

Bm7--->B7sus4  
A  --->Asus4 (в начале песни связка в эти 4 аккорда играется 4 раза)
          потом сразу мини соляк
e|-7-9-7--|--------|--------|
H|--------|-9-7-9-7|9-------|

в проигыше во всех аккордах лучше играть по нижним струнам, ставятся аккорды Bm7, А 
и в такт ставиться мизинец.  

  
 Bm7 (барэ 2-й лад)
e|--------|---0----|--------|--------|
H|--------|---0----|---0----|--------|
G|--------|---0----|--------|--------|
D|--------|---0----|--------|---0----|
A|--------|---0----|--------|--------|
E|--------|---0----|--------|--------|

 B7sus4 (тоже что и Bm7, но добовляем мизинец, ставим на 2 струну 5 лад )                                                              пятого лада )
e|--------|---0----|--------|--------|--------|
H|--------|---0----|---0----|--------|----0---|
G|--------|---0----|--------|--------|--------|
D|--------|---0----|--------|---0----|--------|
A|--------|---0----|--------|--------|--------|
E|--------|---0----|--------|--------|--------|


A                       Asus4  
e|--------|--------|  e|--------|--------|--------|
H|--------|---0----|  H|--------|---0----|---0----|
G|--------|---0----|  G|--------|---0----|--------|
D|--------|---0----|  D|--------|---0----|--------|
A|--------|--------|  A|--------|--------|--------|
E|--------|--------|  E|--------|--------|--------|

Hm   A  D     A 
  Гуляю, я один гуляю.
Hm     A       C#       F#m
  Что дальше, делать я не знаю.
Hm     A    D        A
  Нет дома   никого нет дома.
Hm   A      C#          F#m        C#F#m
  Я лишний   словно куча лома у-у
      
                       Hm         A
     Я бездельник о мама мама.
                       C#F#m
     Я бездельник у-у
                        Hm           A   /Hm A Hm A/
     Я бездельник о-о мама мама.

/проигрыш

Hm       A   D        A
  В толпе я, как иголка в сене.
Hm    A    C#      F#m
  Я снова    человек без цели.
Hm    A     D           A
  Болтаюсь, целый день гуляю,
Hm      A C#        F#m         C#F#m
  Не знаю, я ничего не знаю у-у.

                       Hm         A
     Я бездельник о мама мама.
                        C#F#m
     Я бездельник у-у
                        Hm           A   /Hm A Hm A Hm/
     Я бездельник о-о мама мама.

/проигрыш
КИНО | Просмотров: 3465 | Дата: 26.05.2012 | Комментарии (0)

   C                             G
Я должен прийти к девяти
                   C
На работу свою.
       C                         G
Но сейчас уже без десяти,
                     C
А я только встаю.
       C                            G
На столе моем завтрак стоит,
                    C
От него не уйти.
      C                        G
И, наверное, я к девяти
              C
Не смогу подойти.
         C                               G
П-в(2р):Еще только без десяти
                       C
        Девять часов.

В обьяснительной я напишу,
Что был у врача.
А еще напишу, что часов
На пути не встречал.
И пускай все ругают меня
На работе моей.
И пускай все позорят меня
На работе моей.
        Еще только без десяти
        Девять часов
КИНО | Просмотров: 2143 | Дата: 26.05.2012 | Комментарии (0)

/Fm / C#m/ Hm/ A, G#m/  и так по кругу


Вечер наступает медленнее, чем всегда,
Утром ночь затухает, как звезда.
Я начинаю день и кончаю ночь,
24 круга прочь, 24 круга прочь,
Я - асфальт.
Я получил письмо от себя себе,
Я получил чистый лист, он зовет к тебе.
Я не знаю, кто из вас мог бы мне помочь.
24 круга прочь, 24 круга прочь,
Я - асфальт.
Я свой сын, свой отец, свой друг, свой враг.
Я боюсь сделать этот последний шаг.
Уходи день, уходи, уходи в ночь.
24 круга прочь, 24 круга прочь,
Я - асфальт.
Прочь, я - асфальт.
Прочь.
КИНО | Просмотров: 2196 | Дата: 26.05.2012 | Комментарии (0)

        F#m          H7           E 
Да, я шут, я циркач, так что же? 
           F#m         H7         E 
Пусть меня так зовут вельможи. 
     F#m        H7         E       C#m 
Как они от меня далеки, далеки! 
      F#m         H7     E 
Никогда не дадут руки. 
 E 
Цветы роняют лепестки на песок. 
               C#m 
Никто не знает, как мой путь одинок. 
                    F#m H7                         E 
Сквозь ночь и ветер мне пройти суждено, 
                D7#                    F#m    H7 
Нигде не светит мне родное окно. 
              E 
Устал я греться у чужого огня, 
               C#m                            F#m 
Ну где же сердце, что полюбит меня? 
                A                          E 
Живу без ласки, боль свою затая... 
                   F#m    H7              E 
Всегда быть в маске - судьба моя!
КИНО | Просмотров: 2226 | Дата: 26.05.2012 | Комментарии (0)

E7
Мой чемоданчик,набитый планом
Он предназначен для наркоманов
Он предназначен для плана курок
E7
Он предназначен и для обкурок
H           A                  E7
Анаша, АНАША! До чего ж ты хороша... 
КИНО | Просмотров: 3243 | Дата: 26.05.2012 | Комментарии (0)

Вступление:
e|-1-0----------------------|
H|------3-1-0---------------|
G|------------2-0-----------|
D|-----------------3-2-0-0--|
A|------------------------3-|

     C                               Am 
Здравствуйте, девочки! 
     F                                 G 
Здравствуйте, мальчики! 
        C                             Am 
Смотрите на меня в окно 
             F                             G 
И мне кидайте свои пальчики, да! Ведь я...
 
       C                    Am 
 Сажаю алюминевые огурцы
    F            G 
 А-а. На брезентовом поле, 
         C                    Am
 Я сажаю алюминевые огурцы 
    F             G 
 А-а. На брезентовом поле. 

Три чукотских мудреца 
Твердят, твердят мне без конца: 
"Металл не принесет плода, 
Игра не стоит свеч, а результат - труда". Но я...

 Припев

Проигрыш = аккордам припева

Злое белое колено 
Пытается меня достать, 
Колом колено колют в вены 
В надежде тайну разгадать зачем я...

 Припев

Кнопки, скрепки, клепки,
Дырки, булки, вилки... 
Здесь тракторы пройдут мои 
И упадут в копилку. Упадут туда, где я...

 Припев > 2 раза

Кода = аккордам припева
КИНО | Просмотров: 2645 | Дата: 26.05.2012 | Комментарии (0)

Am Am7 G
Крыши домов дрожат под тяжестью дней,
Dm Dm7 Am Am7
Небесный пастух пасет облака,
Am Am7 G
Город стреляет в ночь дробью огней,
Dm Dm7 Am Am7
Но ночь сильней, ее власть велика.

F E
Тем, кто ложится спать -
Am Am7
Спокойного сна.
F C Am Am7
Спокойная ночь.
F E
Тем, кто ложится спать -
Am Am7
Спокойного сна.
F C Am
Спокойная ночь.

Am Am7 G
Я ждал это время, и вот это время пришло,
Dm Dm7 Am Am7
Те, кто молчал, перестали молчать.
Am Am7 G
Те, кому нечего ждать, садятся в седло,
Dm Dm7 Am Am7
Их не догнать, уже не догнать.

Припев
Am Am7 G
Соседи приходят, им слышится стук копыт,
Dm Dm7 Am Am7
Мешает уснуть, тревожит их сон.
Am Am7 G
Те, кому нечего ждать, отправляются в путь
Dm Dm7 Am Am7
Те, кто спасен, те, кто спасен.

КИНО | Просмотров: 2077 | Дата: 10.10.2010 | Комментарии (0)

Вступление:


Am Em Am Em
E||--------------|-------------|-----|--------------|-------------|-----|-
B||-1------1-3-1-|-0-1-0-0-1-0-|-0-0-|-1------1-3-1-|-0-1-0-0-1-0-|-0-0-|-
G||---2----------|-------------|-----|---2----------|-------------|-----|-
D||-----2--------|-------------|-----|-----2--------|-------------|-----|-
A||-0------0-0-0-|-2-2-2-2-2-2-|-0-0-|-0------0-0-0-|-2-2-2-2-2-2-|-0-0-|-
E||--------------|-------------|-----|--------------|-------------|-----|-

C Am Em
E||--------0-1-0---|---0-------0-----|-------------|-------------|-----|--
B||-1------------0-|-3---3---3---3---|-1-----1-3-1-|-0-1-0-1-0-1-|-0-0-|--
G||---0------------|-------0-------0-|---2---------|-------------|-----|--
D||-----2----------|-----------------|-----2-------|-------------|-----|--
A||-3--------------|-2-------2-------|-0-----0-0-0-|-2-2-2-2-2-2-|-0-0-|--
E||----------------|-----------------|-------------|-------------|-----|--

Соло:
Am G Am G
E||-5------------------------5---------------------------
B||--5--5-7-5-3-5-3-3-5-3---5--5-7-5-3-5-3-3-5-3---------
G||----5-------------------------5-----------------------
D||------------------------------------------------------
A||------------------------------------------------------
E||------------------------------------------------------
Am G Am G
E||-8----------------------------5-----------------------
B||--8--8-10-8-5-3-5-3-3-5-3---5--5-7-5-3-5-3-3-5-3------
G||----9----------------------------5--------------------
D||------------------------------------------------------
A||------------------------------------------------------
E||------------------------------------------------------



I Куплет

     Am                       G                       Am
    Уже поздно, все спят, и тебе пора спать,
     Am                       G                    C
    Завтра в восемь утра начнется игра,
                               G                      Am
    Завтра солнце встанет в восемь утра.
                                 G                                Am
    Крепкий утренний чай, крепкий утренний лед.
                              G                              C
    Два из правил игры, а нарушишь - пропал,
                              G                                 Am
    Завтра утром ты будешь жалеть, что не спал

       
Припев
                  Am                                           G
        Но сейчас деревья стучат ветвями в стекла,
         Am                                                     G
        Ты можешь лечь и уснуть, и убить эту ночь.
             Am                                                   G
        Деревья, как звери, царапают темные стекла,
         Am                                                         G
        Пока еще не поздно лечь и уснуть в эту ночь

II Куплет
    Ни звонков, ни шагов, ни звона ключей,
    Еле слышно часы у кровати стучат,
    В этом доме все давно уже спят.
    Только капля за каплей из крана вода,
    Только капля за каплей из времени дни,
    Ты пойдешь рубить лес, но увидишь лишь пни
 
Припев
        Но сейчас деревья стучат ветвями в стекла,
        Ты можешь лечь и уснуть, и убить эту ночь.
        Деревья, как звери, царапают темные стекла,
        Пока еще не поздно лечь и уснуть в эту ночь
КИНО | Просмотров: 3069 | Дата: 30.07.2010 | Комментарии (0)

Вступление и проигрыш аккорда Dm:
e||--5--5--5--8--5--5--5--8--|
H||--6--5--6--6--6--5--6--6--|
G||--7--7--7--7--7--7--7--7--|

Am
Белый снег, серый лед,
C
На растрескавшейся земле.
Dm
Одеялом лоскутным на ней -
G
Город в дорожной петле.
А над городом плывут облака,
Закрывая небесный свет.
А над городом - желтый дым,
Городу две тысячи лет,
Dm
Прожитых под светом Звезды
Am
По имени Солнце...

Проигрыш: Dm

И две тысячи лет - война,
Война без особых причин.
Война - дело молодых,
Лекарство против морщин.
Красная, красная кровь -
Через час уже просто земля,
Через два на ней цветы и трава,
Через три она снова жива
И согрета лучами Звезды
По имени Солнце...

Проигрыш: Dm | Am | Dm | Am | Dm

И мы знаем, что так было всегда,
Что судьбою больше любим,
Кто живет по законам другим
И кому умирать молодым.
Он не помнит слово "да" и слово "нет",
Он не помнит ни чинов, ни имен.
И способен дотянуться до звезд,
Не считая, что это сон,
И упасть, опаленным Звездой
По имени Солнце...

Кода: Dm | Am > раз 8

Партия второй гитары:
e|------8----7--------|------5--7----8------| для Am C Dm G
e|--12------10--------| для Dm ("И согрета...")
e|--7-------8---------| для Am ("По имени...)

КИНО | Просмотров: 2414 | Дата: 07.03.2010 | Комментарии (0)

Вступление: Am | Em > 4 раза

Am Em
Пустынной улицей вдвоем
C G
С тобой куда-то мы идем,
F G C Am
Я курю, а ты конфеты ешь.
Am Em
И светят фонари давно,
C G
Ты говоришь: "Пойдем в кино",
F G C Am
А я тебя зову в кабак, конечно.

F G C Am
Мм-м, восьмиклассница а-а,
F G
Мм-м...

Проигрыш = вступление

Ты говоришь, что у тебя
По географии трояк,
А мне на это просто наплевать.
Ты говоришь, из-за тебя
Там кто-то получил синяк -
Многозначительно молчу, и дальше мы идем гулять.

Припев

Проигрыш = вступление

Мамина помада,
Сапоги старшей сестры,
Мне легко с тобой, а ты гордишься мной,
Ты любишь своих кукол
И воздушные шары.
И в десять ровно мама ждет тебя домой.

Припев

Кода = вступление

КИНО | Просмотров: 2310 | Дата: 07.03.2010 | Комментарии (0)

Em                         G
Над землей - мороз,
                                  Am
Что не тронь - все лед,
                          D                   D7Em
Лишь во сне моем    поет капель.
                           G
А снег идет стеной,
                               Am
А снег идет весь день,
                   D               Em
А за той стеной стоит апрель.

             Am            D          G       Em
А он придет и приведет за собой весну,
        Am            D           G
И рассеет серых туч войска.
       Am                 D            G      Em
А когда мы все посмотрим в глаза его,
                 Am           D            Em
На нас из глаз его посмотрит тоска.
И откроются двери домов,
Да ты садись, а то в ногах правды нет.
А когда мы все посмотрим в глаза его,
То увидим в тех глазах Солнца свет.

На теле ран не счесть,
Нелегки шаги,
Лишь в груди горит звезда.
И умрет апрель,
И родится вновь,
И придет уже навсегда.

А он придет и приведет за собой весну,
И рассеет серых туч войска.
А когда мы все посмотрим в глаза его,
На нас из глаз его посмотрит тоска.
И откроются двери домов,
Да ты садись, а то в ногах правды нет.
А когда мы все посмотрим в глаза его,
То увидим в тех глазах Солнца свет
КИНО | Просмотров: 2717 | Дата: 07.06.2009 | Комментарии (0)

 Em                   D           Em D
Здесь не понятно, где лицо, а где рыло,
        C          D            Em D
И не понятно, где пряник, где плеть.
  Em               D        Em D
Здесь в сено не втыкаются вилы,
   Hm                   C
А рыба проходит сквозь сеть.

И не ясно, где море, где суша,
Где золото, а где медь.
Что построить, и что разрушить,
И кому, и зачем здесь петь?

                 Em      Am          D       
Нам с тобой: голубых небес навес.
                Em        Am              D       
Нам с тобой: станет лес глухой стеной.
                Em          Am           D       Em       
Нам с тобой: из заплеванных колодцев не пить.
         Em     Am    D        Em       
План такой - нам с тобой...

Здесь камни похожи на мыло,
А сталь похожа на жесть,
И слабость, как сила,
И правда, как лесть.

И не ясно, где мешок, а где шило,
И не ясно, где обида, а где месть.
И мне не нравится то, что здесь было,
И мне не нравится то, что здесь есть. 
      
Нам с тобой: голубых небес навес.
Нам с тобой: станет лес глухой стеной.       
Нам с тобой: из заплеванных колодцев не пить.       
План такой - нам с тобой...       

Черная ночь да в реке вода - нам с тобой.       
И беда станет не беда. Уезжай!..       
Так, была не была, прости и прощай!..        
План такой - нам с тобой...
КИНО | Просмотров: 9315 | Дата: 07.06.2009 | Комментарии (0)

Em
Струн провода, ток по рукам,                                
                                                     Am     Em
Телефон на все голоса говорит: "Пока!" Пора...
Em
И пальто на гвозде, шарф в рукавеИ перчатки в карманах шепчут:    
                      Am            Em"
Подожди до утра!" До утра...                    

                      G      Am         Em       
Но странный стук зовет: "В дорогу!"             
           G             Am                 Em       
Может сердца, а может стук в дверь.             
          G            Am           Em       
И, когда я обернусь на пороге,             
        Am                    D       Em       
Я скажу одно лишь слово: "Верь!"    

/Проигрыш 2 раза/

 И опять на вокзал, и опять к поездам,
И опять проводник выдаст белье и чай,
И опять не усну, и опять сквозь грохот колес
Мне послышится слово: "Прощай!"       

Но странный стук зовет: "В дорогу!"       
Может сердца, а может стук в дверь.       
И, когда я обернусь на пороге,       
Я скажу одно лишь слово: "Верь!"    

/Проигрыш 2 раза/
КИНО | Просмотров: 2769 | Дата: 07.06.2009 | Комментарии (0)

F#m                          H
Наши реки бедны водой,
             F#m                    E
В наших окнах не видно дня,
         F#m                 H
Наше утро похоже на ночь,
           A                 E
Ну, а ночь - для меня...

Глядя в жидкое зеркало луж,
На часы, что полвека стоят,
На до дыр зацелованный флаг,
Я полцарства отдам за коня.        

     A   E       Hm               F#m        
Играй, невеселая песня моя.         
     A    E     F#m        
Играй... Играй...

Командиры Армии Лет,
Мы теряли в бою день за днем,
А когда мы разжигали огонь,
Наш огонь тушили дождем.

Мы сидим у разбитых корыт
И гадаем на розе ветров,
А когда приходит время вставать,
Мы сидим, мы ждем.        

Играй, невеселая песня моя.        
Играй... Играй...
КИНО | Просмотров: 2577 | Дата: 07.06.2009 | Комментарии (0)

Форма входа
Логин:
Пароль:
Поиск
Пользовательского поиска
Друзья сайта

Сейчас на сайте

Онлайн всего: 1
Гостей: 1
Пользователей: 0
Наш опрос
Как вы нашли наш сайт?
1. С YouTube или ему подобного сайта
2. Через поисковик (Google и т.п.)
3. Через общение в SKYPE
4. Посоветовали знакомые или друзья
5. Другое (интересно как? напишите в чате)
6. Реклама на любом другом сайте
Всего ответов: 126
Мини-чат
Все права на материалы, представленные на сайте, принадлежат их законным владельцам (правообладателям). Copyright www.maroz.de © 2024 |