Вторник, 23.04.2024, 04:55
Приветствую Вас Гость

Тексты и аккорды



Главная » Тексты и аккорды » A » АРИЯ

Не обязательно то, что все представленные аккорды и табы, правильные. Мы все люди, каждый играет и подбирает так как ему нравится. Если знаете правильный или другой вариант, то напишите в коментарий без всяких придирок, мы будем очень рады!
Кто ты
24.10.2010, 17:25
Ария - Кто ты

Подбор: Roman Alampiev (2:452/23.38)

            I
  Am Em D  C    Am Em D   C  D C
 Снова полночь,слышу чей-то голос,
  Am Em D C Am Em D  C Em  C Em
 Шепчет имя,манит и зовет меня.
Em7     D C                    Em7
 И белым   туманом на стеклах чей-то вздох оставлен.
Em7      D C                      Em
 И гаснет   вдруг пламя,хотя нет ветра.
 Am Em D   C   Am Em   D  C Em C  Em
 вижу тень я,кто-то в черном у окна...

          Припев:
   C  H7     Em
 Кто ты,наказанье или милость?
   C  H7     Em
 Кто ты,отрекаться не спеши.
  C H7       G         C
 Может за душой моей явилась?
  G      C     Em
 Только нет души...

            II
 Проклят,брошен,словно камень с неба,
 Страшно падать,только ждать еще страшней!
 все помнить и жаждать любви,но быть распятым ею.
 И мчаться к безумью,услышав голос.
 Ровно в полночь снова тень идет ко мне...
          Припев:
           solo
          Припев:
---------------------------------------------------------------------
Hемного табов:

  Em7          D   C                              Em7
 1|-3----3-----2---0----0-------------------------3-----2-0-----------
 2|---0----0-----3---1----1---4---1-----1-----4-----0-------4-1-------
 3|-----0----0---------0----0---0---0-----0-----0-----0---------0-----
 4|-2----------0----------------------2-----2-----2-------------------
 5|----------------3--------------3-----------------------------------
 6|-------------------------------------------------------------------
       И белым      туманом          на стеклах  чей-то вздох оставлен
  Em7          D   C                              Em
 1|-3----3-----2---0----0-------------------------0-------------------
 2|---0----0-----3---1----1---4---1-----1-----4-----0---4-1-0---------
 3|-----0----0---------0----0---0---0-----0-----0-----0-------1-0-----
 4|-2----------0----------------------2-----2-----2-------------------
 5|----------------3--------------3-----------------------------------
 6|-------------------------------------------------------------------
       И гаснет     вдруг пламя,   хотя нет      ветра...


в конце каждого куплета Ем:
  Em
 1|-0-------------
 2|---0-----------
 3|-----0---------
 4|-------2-0p2---
 5|---------------
 6|-------------0-



                   КТО ТЫ?  (2-й вариант)
                    (Терентьев - Пушкина)

Подбор табов и аккордов: Macknar, macknar@mail.ru
1|--------------------------------------|------------------------------|
2|--------------------------------------|------------------3--1--3--1--|
3|-2-----0-----0------------------------|-2-----0-------0--------------|
4|---4-----2-----2--4-----0^4^5-2---0-2-|---4-----2---2----0-----0-----|
5|-----------2--------5-0---------0-----|-----------2---------0-----0--|
6|-----0--------------------------------|-----0------------------------|

1|--------------------------------------|-------------------------------
2|--------------------------------------|-------0-------0--3--1--0------
3|-2-----0-----0------------------------|-2-------0---0-------------2---
4|---4-----2-----2--4-----0^4^5-2---0-2-|---4-------2------0-----0--4---
5|-----------2--------5-0---------0-----|---------------------0---------
6|-----0--------------------------------|-----0-------------------------
1|-0--------------|
2|---0------------|
3|-------2--------|
4|-----5---4^5-2--|
5|----------------|
6|----------------|

Снова полночь -
слышу чей-то голос,
Шепчет имя,
манит и зовет меня...


1|-----------------|-----------------|-----------------|------------------|
2|-8---8-7-----7---|-5---5-4-----4---|-1-----1-----1---|------------------|
3|---9-----8-----8-|---5-----5-----5-|---2-----2-----2-|-5-----5----------|
4|-----------9-----|-----------7-----|-----2-----2-----|---5--------------|
5|-----------------|-----------------|-----------------|-----3----3-2-----|
6|-----------------|-----------------|-----------------|--------------3-2-|
И белым
Туманом
Hа стеклах чей-то вздох оставлен,
И гаснет вдруг пламя
Хотя нет ветра.
вижу тень я -
Кто-то в черном у окна.

  C  B       Em        G
Кто ты? Hаказанье или милость?
  C  B       Em           G
Кто ты? Отрекаться не спеши!
 C B         Em        G
Может, за душой моей явилась?
 C
Только
 Am
нет
   Em
души.
Проклят, брошен
словно камень с неба,
Страшно падать,
только ждать еще страшней!
все помнить
И жаждать
чюбви, но быть распятым ею,
И мчаться
К безумью,
Услышав Голос...

Ровно полночь -
снова тень идет ко мне...
Добавил: maroz |
Просмотров: 3228 | Рейтинг: 0.0/0 |
Не обязательно то, что все представленные аккорды и табы, правильные. Мы все люди, каждый играет и подбирает так как ему нравится. Если знаете правильный или другой вариант, то напишите в коментарий без всяких придирок, мы будем очень рады!
Всего комментариев: 0
Добавлять комментарии могут только зарегистрированные пользователи.
[ Регистрация | Вход ]
Форма входа
Логин:
Пароль:
Поиск
Пользовательского поиска
Друзья сайта

Сейчас на сайте

Онлайн всего: 1
Гостей: 1
Пользователей: 0
Наш опрос
Как вы нашли наш сайт?
1. С YouTube или ему подобного сайта
2. Через поисковик (Google и т.п.)
3. Через общение в SKYPE
4. Посоветовали знакомые или друзья
5. Другое (интересно как? напишите в чате)
6. Реклама на любом другом сайте
Всего ответов: 126
Мини-чат
Все права на материалы, представленные на сайте, принадлежат их законным владельцам (правообладателям). Copyright www.maroz.de © 2024 |