Понедельник, 20.08.2018, 06:23
Приветствую Вас Гость

Тексты и аккорды



Главная » Тексты и аккорды » A

АГАТА КРИСТИАДРЕНАЛИНАлисААЛЬФА
Амирамов ЕфремАнтонов ЮрийАРИЯАрно Сергей
Ахмадов Рамзан

В разделе объявлений: 114
Показано объявлений: 1-20
Страницы: 1 2 3 4 5 6 »
Не обязательно то, что все представленные аккорды и табы, правильные. Мы все люди, каждый играет и подбирает так как ему нравится. Если знаете правильный или другой вариант, то напишите в коментарий без всяких придирок, мы будем очень рады!

         Dm
        Маленький забытый всеми театр,
                          C
        Свет керосиновых ламп.
           B             Am
        В небе поют голоса тех,
           B      C      Dm
        Кого я любил и ждал.

        Музыка меня зовет вверх,
        Я уже на вершине крыш.
        Мы танцуем лунный вальс,
        Хотя я не сплю, а ты спишь.

              Dm     C  B          Am
        Ну а там внизу,  тает снег, тает снег.
         Dm     C    B  C
        Там внизу...
               Dm C B Am Dm C B Am A+5
        Тает снег

        Сотни тысяч свечей ждут огня,
        Тысячи глаз - глаз.
        Я начинаю играть в игру,
        Когда на часах - час.
        Маленький забытый всеми театр,
        Свет керосиновых ламп.
        И вновь в небе поют голоса тех,
        Кого я любил и ждал.

              Dm     C  B          Am
        Ну а там внизу,  тает снег, тает снег.
         Dm     C    B  C
        Там внизу...

        Dm C B Am Dm C B Am A+5 D

          A+5
        |-O-|---|-
        |---|-O-|-
        |---|-O-|-
        |---|-O-|-
        |---|---|-
        |---|---|-

АлисА | Просмотров: 981 | Дата: 29.05.2014 | Комментарии (0)

             Gm                        F
Красный вечер ткал узоры,
                                    Gm
Брал доверчивых врасплох,
Там, где липовые горы,
Синий вереск, белый мох,
На сосновые иголки
Нанизал закатов тень,
Днями множил кривотолки
В пересудах деревень.

     Cm B             Eb                F
    Будто где-то за два поля
     Cm B             C7            Gm
    По тюрьме тоскует воля:
                F
    Толи скучно без узды,
     Gm                 F
    Толь постыли ночи напролет.
      Gm                F
    Стынет плаха холодом звезды,
      Gm            F                        Gm
    Где нет боли, надежда не живет.

Как в угаре от охоты
Пальцы гнул лихой народ:
От родительской субботы
Кто кого переживет,
Кто кому надует в уши,
Чья заточка круче всех, -
Кровью вымарали души
В потасовках за успех.

    Там, где за тремя горами
    Дымом называли пламя,
    Солнце - черною дырой,
    Темной ночью спутаны пути,
    Волчья стая, да осиный рой.
    Без надежды веры не найти.

А за красными зубцами
Тихарится рулевой,
За палаты с изразцами
Отвечает головой.
Было время он треножил
Диких ветров злую рать,
Нынче хочет, да не может
Репутацией хромать.

    Там, где за четыре моря
    Нет ни радости, ни горя,
    Только тишина, да гладь,
    Все как надо, хоть брось, хоть разорви,
    Между строчек правду проверять.
    Где нет веры, места нет любви.
АлисА | Просмотров: 1424 | Дата: 18.04.2013 | Комментарии (0)


                     Am
Я дышал синевой, белый пар выдыхал...
         Dm           G           Am
Он летел, становясь облаками.
                                Am
Снег скрипел подо мной, Поскрипев - затихал,
        Dm         G              Am
А сугробы прилечь завлекали.
         Dm                          G                         Am
И звенела тоска, что в безрадостной песне поётся,
           Dm                              G                          Am
Как ямщик замерзал в той глухой непролазной степи...
       Dm                    G                     F
Усыпив, ямщика заморозило жёлтое солнце.
        Dm                          G                              Am
И никто не сказал: "Шевелись, поднимайся, не спи!"

Всё стоит на Руси, До макушек в снегу,
Полз, катился, чтоб не провалиться.
Сохрани и спаси!, Дай веселья в пургу!
Дай не лечь, не уснуть, не забыться.

Тот ямщик - чудодей бросил кнут а - куда ему деться?!
Помянул он Христа, ошалев от заснеженных вёрст.
Он, хлеща лошадей, мог бы этим немного согреться...
Ну, а он в доброте их жалел, и не бил, и замёрз.
Да...

Отраженье своё, Увидал в полынье -
И взяла меня оторопь: в пору б
Оборвать житиё, Я по грудь во вранье!
Да и сам-то я кто? Надо бы в прорубь.

Вьюги стонут, зовут, кто же выстоит, выдержит стужу?
В прорубь надо да в омут, но - сам, а не руки сложа.
Пар валит изо рта... Эх, душа моя рвётся наружу!
Выйдет вся - схороните, зарежусь - снимите с ножа.

                                 Am    C                            F
Снег кружит над землёй,           Над страною моей.
            C              G    Am
Мягко стелет, в запой зазывает...
                      Am    C                               F
Ах, ямщик удалой!         Пьёт и хлещет коней!
           C            G            E
А не пьяный ямщик замерзает...

Так звенела тоска, что в безрадостной песне поЈтся,
Как ямщик замерзал в той глухой непролазной степи...
Усыпив, ямщика заморозило жёлтое солнце.
И никто не сказал: "Шевельнись, поднимайся, не спи!"

Посмотреть видео, Прослушать и скачать запись в моём исполнении здесь:
АлисА | Просмотров: 2360 | Дата: 23.07.2011 | Комментарии (0)

INTRO(4т)

  Em                    E             E7
 Я не ною о судьбе, лучшее храня в себе
  E                      Am
 И признанием тебе досаждая
  Am                        Em
 Привыкая к боли ран, я прощу тебе обман
             F#        H          C
 Ты ж как в песне у цыган - молодая
  E   Am      H Em
 Э-э-эй, молода-я
 
 Объяснить, не объяснишь и живешь, как-будто спишь
 А в бессонницу грешишь, почему-то
 А с тобою рядом кто и ты надеешься на что
 Ведь в этой жизни все не то, даже чудо
 Э-э-эй, даже чудо

INTRO(4т)
TRA=+1
 
 Только мне ль тебя учить, как необходимо жить
 С кем не спать, а с кем дружить, все гадая
 Что такое слово "честь", где-то чушь, а где-то лесть
 Ведь ты права какая есть, молодая
 Э-э-эй, молодая
 
INTRO(4т)
[Здесь соло]

 Ничего не говори, не боясь сгореть гори
 Я ж в огне твоей любви, пропадая
 Все в тебе благословлю, счастьем душу отравлю
 Просто я тебя люблю, молодая
 Э-э-эй, молодая
Амирамов Ефрем | Просмотров: 5192 | Дата: 27.01.2011 | Комментарии (0)



скачать эту запись

проиг: Gm|B|Eb|D 2p Gm|Dm|Cm|F 2p

Gm                        B                                     Eb                  D
     Лик вселяет стыд, когда на тысячи надежд падает тень.
Gm                B                          Eb                         D
     Голая душа помыслов неймёт, попробуй, одень.
Gm                         B                                               Eb                    D
     Пленных не берут, когда свидетельствует страх, чуть пригубя
Gm                        B                            Eb                    D
     Горькой пустоты скорбных пепелищ, вместо огня.

                   Gm                          F          Eb        F
Раскачали мир, волны разошлись о крест.
                       Gm                           Dm        Cm        F
Вздыбило войной, ненависть звезды на крест.
                      Gm                         F       Eb        F
От одних кровей, на одной земле резня.
                    Gm                         Dm          Cm        F
Что такое «мы», пришлому понять нельзя.

 B         F      Cm        F     Gm
Гул основ – легкая тень честного слова,
    B             F   F#                       F
Правдой жжет и заставляет лететь,
 B           F  Cm         F      Gm
Боль огня  переживать снова и снова
B                   F       Gm          Gm
И вздохом взять смерть.

Gm                       B                                     Eb                    D
     Труден приговор, когда решается вопрос быть или нет,
Gm                        B                          Eb                         D
     Разве только луч утренней звезды подскажет ответ.
Gm                   B                                             Eb              D
     Выбор опалит, когда на мытарства взойдет ясная суть –
Gm                          B                           Eb           D
     Главным дорожить, прочего не брать и в путь.

                   Gm                          F          Eb        F
Раскачали мир, волны разошлись о крест.
                       Gm                           Dm        Cm        F
Вздыбило войной, ненависть звезды на крест.
                      Gm                         F       Eb        F
От одних кровей, на одной земле резня.
                    Gm                         Dm          Cm        F
Что такое «мы», пришлому понять нельзя.


проиг: Gm|Dm|Cm|F 4p Gm!
АлисА | Просмотров: 3050 | Дата: 27.12.2010 | Комментарии (0)

Для тех, кто свалился с Луны (1993)


E||-------------------------|------------------------|------------------||
B||-------3-----------------|------------------------|------------------||
G||--0-------0--0-2-3--2p0--|--0---------------------|------------------||
D||-------------------------|------------------------|------------------||
A||-------------------------|------------------------|------------------||
E||-------------------------|------------------------|------------------||
 ||                         |                        |                  ||
E||-------------------------|------------------------|------------------||
B||-------------------------|-----3---------h-p------|------------------||
G||-------------------------|--------2--0--2^3^2-----|------------------||
D||-------------------------|--3---------------------|------------------||
A||-------------------------|------------------------|------------------||
E||-------------------------|------------------------|------------------||]

        Gm   F      Gm  F
        Печальна ночь,
        Gm    F     Gm  F
        Капризен день,
        B    F     Gm  F
        И прячет дождь
        Cm     Dm   Gm F
        Рассвета тень.

        Туда, где ждут
        Снять урожай,
        Я ухожу,
        Не провожай.

         Cm
        Перекати-поле,
           B       F   Gm
        С Дона до Ангары,
                   Cm
        Где точит камень-Шаман,
         F            G
        Летописец-Байкал.

         Cm
        Перекати-поле,
           B      F    Gm
        С Лены и до Невы,
                    Cm
        Где на рассвете звездой
        D
        Я встал

          Gm    F
        Плач, плач,
        B        F
        Да наливай скорей.
        B     C
        Плач, плач,
              D       Gm
        Я пропился в дым.
        Плач, плач,
        Да ещс налей.
        Плач, плач,
        Хорошо сидим.
        Плач, плач,
        Да по всей Руси,
        Плач, плач,
        Эх, до песен ли
        Плач, плач,
        Где ни колеси,
        Плач, плач,
        Как ни весели.

        Куда ни глянь,
        Гроза в глаза,
        Как с нищих дань,
        Под образа,

        Да с пьяных глаз,
        Всс хорошо,
        Горим на раз,
        Лишь только дождь прошсл.

        Перекати-поле,
        С Ладоги на Онон,
        Где заклинатель степей
        С колыбели плсл мост.
        Перекати-поле,
        С Шаморы на Москву,
        Где чсрным маком в огне
        Я рос



        G#m F#    G#m  F#
        Печальна ночь,
        G#m F#    G#m  F#
        Капризен день,
        H   C#    G#m  F#
        И прячет дождь
        C#m  D#m  G#m F# G#m F#
        Рассвета тень.

        Туда, где ждут
        Снять урожай,
        Я ухожу,
        Не провожай.

         C#m              H      F#   G#m
        Перекати-поле, с Дона до Ангары,
                   C#m           F#           G#
        Где точит камень-Шаман, летописец-Байкал.
         C#m              H      F#   G#m
        Перекати-поле, с Лены и до Невы,
                    C#m         D#
        Где на рассвете звездой я встал

          G#m   F# H        F#
        Плач, плач, да наливай скорей.
          H     C#        D#      G#m
        Плач, плач, я пропился в дым.
          G#m   F# H     F#        Плач, плач, да еще налей.
          H     C#   D#
        Плач, плач, хорошо сидим.

        Плач, плач, да по всей Руси,
        Плач, плач, эх, до песен ли
        Плач, плач, где ни колеси,
        Плач, плач, как ни весели.

        Куда ни глянь,
        Гроза в глаза,
        Как с нищих дань,
        Под образа,

        Да с пьяных глаз,
        Всё, всё хорошо,
        Горим на раз,
        Лишь только дождь прошел.

        Перекати-поле, с Ладоги на Онон,
        Где заклинатель степей с колыбели плел мост.
        Перекати-поле, с Шаморы на Москву,
        Где черным маком в огне я рос

        Плач, плач, да наливай скорей.
        Плач, плач, я пропился в дым.
        Плач, плач, да еще налей.
        Плач, плач, хорошо сидим.

        Плач, плач, да по всей Руси,
        Плач, плач, эх, до песен ли
        Плач, плач, где ни колеси,
        Плач, плач, как ни весели.
АлисА | Просмотров: 2146 | Дата: 09.11.2010 | Комментарии (0)

Условные обозначения:
* - на 6-й струне 10 9 5 7
** - на 6-й струне 10 9 5 2
Вступление:
(играется на квинтах, так что не пробуйте играть на простых аккордах)
B   C# B B# , 
E   A G F#       4 раза
Bm A G Bm G *
Bm A G Bm G **   2 раза 
Bm        A        G         Bm    
Мне никогда не войти в этот сад
   G          * (смотрите внизу) G A
В нем нет цветов для меня
Bm     A       G    Bm    
Я ненавижу штыки оград
  G          ** (смотрите внизу) G A
Бьющих в сплетение дня
Мне не хватает в закрытых садах
Воздуха, рвущего плоть
Кто слаб душою, спешит сюда
Не в силах себя побороть
 G         Em         
Сад не придуман мною
G      A
Он - реален как ты
G         Em         
Но ты идешь спокойно
   F#
В сад пустоты...
Я не люблю безнадежности спин
Верю в энергию лиц
Против движенья иду один
Нарушив условность границ
Прочь от аллеи железных святош
Холод их песен страшит
Следом за ними вошла в сад ложь
Розы подняв на свой щит
Сад не придуман мною
Он - реален как ты
Но ты идешь спокойно
В сад пустоты...
 Bm                   Bdim
Там есть все, только нет души
  Em               B
Вместо росы белый жемчуг дрожит
 Bm             Bdim
Робот птиц восковых сторожит
 Em                 F#
Сад всем диктует законы
Думать о будущем нет причин
Прошлая жизнь под контролем машин
Ты выходишь из сада живым
Но в сердце мертвая зона
  D      A     Em               F#
Прочь беги, пока хватает сил, беги
D      A            Bm    F#
На восход, в сад живо-о-о-ой
АРИЯ | Просмотров: 1171 | Дата: 24.10.2010 | Комментарии (0)

Ария - Кто ты

Подбор: Roman Alampiev (2:452/23.38)

            I
  Am Em D  C    Am Em D   C  D C
 Снова полночь,слышу чей-то голос,
  Am Em D C Am Em D  C Em  C Em
 Шепчет имя,манит и зовет меня.
Em7     D C                    Em7
 И белым   туманом на стеклах чей-то вздох оставлен.
Em7      D C                      Em
 И гаснет   вдруг пламя,хотя нет ветра.
 Am Em D   C   Am Em   D  C Em C  Em
 вижу тень я,кто-то в черном у окна...

          Припев:
   C  H7     Em
 Кто ты,наказанье или милость?
   C  H7     Em
 Кто ты,отрекаться не спеши.
  C H7       G         C
 Может за душой моей явилась?
  G      C     Em
 Только нет души...

            II
 Проклят,брошен,словно камень с неба,
 Страшно падать,только ждать еще страшней!
 все помнить и жаждать любви,но быть распятым ею.
 И мчаться к безумью,услышав голос.
 Ровно в полночь снова тень идет ко мне...
          Припев:
           solo
          Припев:
---------------------------------------------------------------------
Hемного табов:

  Em7          D   C                              Em7
 1|-3----3-----2---0----0-------------------------3-----2-0-----------
 2|---0----0-----3---1----1---4---1-----1-----4-----0-------4-1-------
 3|-----0----0---------0----0---0---0-----0-----0-----0---------0-----
 4|-2----------0----------------------2-----2-----2-------------------
 5|----------------3--------------3-----------------------------------
 6|-------------------------------------------------------------------
       И белым      туманом          на стеклах  чей-то вздох оставлен
  Em7          D   C                              Em
 1|-3----3-----2---0----0-------------------------0-------------------
 2|---0----0-----3---1----1---4---1-----1-----4-----0---4-1-0---------
 3|-----0----0---------0----0---0---0-----0-----0-----0-------1-0-----
 4|-2----------0----------------------2-----2-----2-------------------
 5|----------------3--------------3-----------------------------------
 6|-------------------------------------------------------------------
       И гаснет     вдруг пламя,   хотя нет      ветра...


в конце каждого куплета Ем:
  Em
 1|-0-------------
 2|---0-----------
 3|-----0---------
 4|-------2-0p2---
 5|---------------
 6|-------------0-



                   КТО ТЫ?  (2-й вариант)
                    (Терентьев - Пушкина)

Подбор табов и аккордов: Macknar, macknar@mail.ru
1|--------------------------------------|------------------------------|
2|--------------------------------------|------------------3--1--3--1--|
3|-2-----0-----0------------------------|-2-----0-------0--------------|
4|---4-----2-----2--4-----0^4^5-2---0-2-|---4-----2---2----0-----0-----|
5|-----------2--------5-0---------0-----|-----------2---------0-----0--|
6|-----0--------------------------------|-----0------------------------|

1|--------------------------------------|-------------------------------
2|--------------------------------------|-------0-------0--3--1--0------
3|-2-----0-----0------------------------|-2-------0---0-------------2---
4|---4-----2-----2--4-----0^4^5-2---0-2-|---4-------2------0-----0--4---
5|-----------2--------5-0---------0-----|---------------------0---------
6|-----0--------------------------------|-----0-------------------------
1|-0--------------|
2|---0------------|
3|-------2--------|
4|-----5---4^5-2--|
5|----------------|
6|----------------|

Снова полночь -
слышу чей-то голос,
Шепчет имя,
манит и зовет меня...


1|-----------------|-----------------|-----------------|------------------|
2|-8---8-7-----7---|-5---5-4-----4---|-1-----1-----1---|------------------|
3|---9-----8-----8-|---5-----5-----5-|---2-----2-----2-|-5-----5----------|
4|-----------9-----|-----------7-----|-----2-----2-----|---5--------------|
5|-----------------|-----------------|-----------------|-----3----3-2-----|
6|-----------------|-----------------|-----------------|--------------3-2-|
И белым
Туманом
Hа стеклах чей-то вздох оставлен,
И гаснет вдруг пламя
Хотя нет ветра.
вижу тень я -
Кто-то в черном у окна.

  C  B       Em        G
Кто ты? Hаказанье или милость?
  C  B       Em           G
Кто ты? Отрекаться не спеши!
 C B         Em        G
Может, за душой моей явилась?
 C
Только
 Am
нет
   Em
души.
Проклят, брошен
словно камень с неба,
Страшно падать,
только ждать еще страшней!
все помнить
И жаждать
чюбви, но быть распятым ею,
И мчаться
К безумью,
Услышав Голос...

Ровно полночь -
снова тень идет ко мне...
АРИЯ | Просмотров: 2338 | Дата: 24.10.2010 | Комментарии (0)

Ария - Кровь за кровь

E-------------------------------------|------------------------------|
H----8---7----------------------------|---7--------------------------|
G---9--------9---7-------9------------|---7---9---7----------8-------|
D--9-------------------10-------------|---7-----------10----9--------|
A--------------------10---------------|--------------------9---------|
E-------------------------------------|------------------------------|
E-------------------------------------|-----------------------------||
H----8---7-------8------10--8---------|--7--8--7--8--7h8p7----------||
G---9--------9---------9-----------9--|--7------------------7-----9-||
D--9-----------------10----------10---|--7-----------------------9--||
A------------------------------10-----|------------------------10---||
E-------------------------------------|-----------------------------||

Main riff :
E-------------------------------------|-----------------------------------|
H-------------------------------------|-----------------------------------|
G-------------------------------------|-----------------------------------|
D--7---------8---------7--------------|-----------------------------------|
A-----8--5------8--5------8--5---5----|--5--5-----5--7--8--7--5h7p5-----5-|
E-------------------------------------|--------8---------------------8----|

E-------------------------------------|-----------------------------------|
H-------------------------------------|-----------------------------------|
G-------------------------------------|-----------------------------------|
D--7---------8---------7--------------|-----------------------------------|
A-----8--5------8--5------8--5---5----|--5--5-----5--7--8--7--5h7p5-------|
E-------------------------------------|--------8---------------------8--5-|
E-------------------------------------|-----------------------------------|
H-------------------------------------|-----------------------------------|
G-------------------------------------|-----------------------------------|
D--7---------8---------7--------------|-----------------------------------|
A-----8--5------8--5------8--5---5----|--5--5-----5--7--8--7--5h7p5--8--5-|
E-------------------------------------|--------8--------------------------|

E-------------------------------------|-----------------------------------|
H-------------------------------------|-----------------------------------|
G-------------------------------------|-----------------------------------|
D--7---------8---------7--------------|---------------------------------7-|
A-----8--5------8--5------8--5---5----|--5--5-----5--7--8--7--5h7p5--8----|
E-------------------------------------|--------8--------------------------|
I verse :
   G5                                   A5
   Ты готов сорвaться в бой....  Понтий Пилaт
E-------------------------------|-----------------------------------------|
H-------------------------------|---------------------------------11--10--|
G-------------------------------|-----------------------------------------|
D---5---------------------------|----------7----------8--7----------------|
A---5---------------------------|----------7----8--7--------8--7----------|
E---3---------------------------|----------5------------------------------|
 A
Древний град Иерусалим довлеет над тобой
H
Понтий Пилат
 A                         H
Ты готов сорваться в Рим, махнуть на все рукой
 A             H
Забрав с собой солдат

 G#
Ты устал от зтих лиц
           A
От чужой, неискренней земли
G#
Боль тупая бьет в висок
A            H C    H
Дню мучений выпал срок
Em
Кровь за кровь!
     D                 Em
в том воля не людей, а богов
 Em
Смерть за смерть!
    D                       H
Ты должен не роптать, а терпеть
Em
Здесь твой ад!
D                     Em
Ты знаешь - нет дороги назад
Em
Пей свой яд!
 D                      H
Пей, прокуратор Понтий Пилат

Hад Голгофой - траур мглы ты чувствуешь беду
Ты сам не свой
Меж солдат, от зноя злых, твоих решений ждут
Два вора и святой
Он безумен - видит Бог
виноват, лишь в том, что одинок
Hо ты шепчешь приговор
                  Иудейский царь распят как вор!

                         Em           C
* (Так игpается         в серебристый сон
* только здесь)           D            H
*                        Ты бы с ним ушел
*                     По дороге вечных звезд
*                   Hад простором строгих гор
*                        Ты бы перед ним
*                        а колени встал
*                  Hе стыдясь ни слов, ни слез
*                  Кто любил - тот и распял...
Ты хотел найти покой на дне озерных вод
Понтий Пилат
Ты стал сам себе судьей, но смерть твоя не в счет
Для вечной Силы Зла

Дьявол помнит о тебе
Он в страстную ночь идет к воде
Жаждет смыть с себя позор
Hо все тщетно до сих пор.
АРИЯ | Просмотров: 1266 | Дата: 24.10.2010 | Комментарии (0)

 Dm
 Древние рощи полны голосов
C        B      Dm      
 Шепотом трав и камней
    Dm
 К северу тянется дым от костров
  C            B       Dm
 Враг рыщет в той стороне
 Dm   G#m    Dm
 Духи грозы бьют в барабан
      C      B        Dm
 Из молний куют нам мечи
 Dm    G#m       Dm
 Мы принесём жертву богам
    C      B      Dm
 Кровью своей напоим
 
 
 Em
 Против нас блеск византийских церквей
 D         C      Em
 Пышность пиров и даров
 Em
 Мы придаём смерти наших детей
 D         C      Em
 Зная жестокость врагов
   Em    Bm   Em
 Знаки луны грозят нам бедой
 D       C       Em
 Стрелы поют об одном
  Em     Bm       Em
 Выбор жесток - крещение водой
 D      C      Em
 Или крещение огнём
 
 Припев:
Dm       B    C          Dm
 Ооооо, Ооооо, крещение огнём
 Dm       B    C          Dm
 Ооооо, Ооооо, крещение огнём
 Em     C     D         Em    
 Ооооо, Ооооо, крещение огнём
 Em     C     D         Em
 Ооооо, Ооооо, крещение огнём
 
 Мы обезумев от гнева дрались
 Веря в бессмертие душ
 Станет погибший не горстью земли
 А стражем в небесном саду
 Вниз по реке идолам плыть
 Некому бить им поклон
 Нас больше нет - стоит ли жить
 В мире крещённом огнём
 
 Припев:
Dm       B    C          Dm
 Ооооо, Ооооо, крещение огнём
 Dm     B      C          Dm
 Ооооо, Ооооо, крещение огнём
 Em     C    D         Em    
 Ооооо, Ооооо, крещение огнём
 Em     C    D         Em 
 Ооооо, Ооооо, крещение огнём
 
 
 Dm
 Древние рощи веками молчат
 C           B       Dm     
 В мире, крещённом огнём
АРИЯ | Просмотров: 1178 | Дата: 24.10.2010 | Комментарии (1)

Am                    Asus4
Я о ней мечтал всю жизнь
Am                       C
Наконец мои желанья сбылись
G        Am
Вот она. Вот она!

Вся блестит и манит взгляд
На такой не грех отправиться в ад
Вот она. Вот она!

F
Чем дальше - тем больше
                   G
Чем больше - тем сильней
F
Друзей душит зависть
                  G
Плевать мне на друзей
F                           G
И днем, и ночью я буду мчаться
По черной полосе
F
Слились воедино
                G
Два призрака шоссе!

        Am
        Я - король дороги
             F
        Я - король от Бога
        G
        В ад или рай
              E
        Сама выбирай!

        Жить как все мне скучно
        Мне и смерть игрушка
        Скорость в крови
        Удачу лови!

Я о ней мечтал всю жизнь
И с небес она спускается вниз
Вот она
Вот она!

Золотой волоной волос
Закружила и накрыла всерьез
Вот она
Вот она!

Чем дальше - тем больше
Чем больше - тем сильней
Нас двое в машине
А ночь все горячей
И днем, и ночью мы будем мчаться
По черной полосе
Слились воедино
Два призрака шоссе!

F                       G
Мы на лету срывали вечность
      Dm             E
А дорога шипела змеей
F                    G
Тела светились словно свечи
  Dm              E
В этой гонке такой неземной
Неземной...

Я очнулся ото сна
И увидел свою жизнь из окна
Вот она
Вот она!

Старый кузов без колес
И подруга, что целует взасос
Вот она
Вот она!

Чем дальше - тем больше
Чем больше - тем сильней
Все те же, все то же
А ночь все холодней
И днем, и ночью я пил не мало
За призраков шоссе...
Их больше не стало
На черной полосе

   Asus4
|----|----|----|
|----|----|--*-|
|----|--*-|----|
|----|--*-|----|
|----|----|----|
|----|----|----|
АРИЯ | Просмотров: 1353 | Дата: 24.10.2010 | Комментарии (0)

Проигрыш  Bb5
          Bb5  E5  Bb5  F#5  Bb5
         
Bbm
  Боги прокляли спятивший Рим
G#
  Город брошенных женщин и калек,
G
  Здесь глотают отравленный дым,
F#                    H5
  Режут лезвием вены
Bbm
  Здесь по праздникам ходят смотреть,
G# 
  Как в агонии бьётся человек,
G
  Как пирует свирепая смерть
F#                F
  В жёлтом круге арены.

D#m
  Сила приносит свободу,
       Bbm    G#         D#
  Побеждай и станешь звездой
              D#m
  А может обретёшь покой

        Bbm        C#    
  Твой враг в пыли жалок и слаб,
  D#               D#m
  Загнанный зверь, раненный раб
   Bbm           C#            D#                F#  G#
  Еще секунда и скажет \"Убей!\" перст императора
     Bbm        C#
  Святой судьбе не прикословь!
  D#           D#m
  Воет толпа - чувствует кровь,
     Bbm             C#              D#               F#  G#
  Не стоит скорби ни жен, ни друзей, жизнь гладиатора
      Bbm
  Колизей

Проигрыш  Bb5  E5  Bb5  F#5  Bb5

  Словно псы, что дерутся за кость,
  Обреченные рвут друг другу плоть.
  В их глазах не азарт и не злость,
  Ничего кроме боли

  Ты один не сломался, не лег
  От ударов хранил тебя Господь
  Видишь, Цезарь сошел на песок
  Наградить тебя волей

  Сила приносит свободу,
  Побеждай и станешь звездой
  А может
  Обретешь покой

  Твой враг в пыли
  Жалок и слаб,
  Загнанный зверь,
  Раненый раб
  Еще секунда и скажет \"Убей!\"
  Перст императора

  Святой судьбе
  Не прекословь!
  Воет толпа,
  Чувствует кровь,
  Не стоит скорби
  Ни жен, ни друзей
  Жизнь гладиатора
  Колизей

  Помнишь,
  Ты ведь помнишь,
  Ты был гордым мудрым вождем
  Помнишь,
  Ты ведь помнишь,
  Как вошли солдаты в твой дом
  Ты встречал рассвет
  Среди выжженных скал
  Время шло, и вот
  Час расплаты настал

  Хлеба и зрелищ народу
  Через край!
  Сила приносит свободу,
  Побеждай!

  Твой враг в пыли
  Жалок и слаб,
  Загнанный зверь,
  Раненый раб
  И выбил искры из серых камней
  Меч гладиатора

  Святой судьбе
  Не прекословь!
  Воет толпа,
  Чувствует кровь,
  Не стоит скорби
  Ни жен, ни друзей
  Жизнь императора
  Колизей
АРИЯ | Просмотров: 1191 | Дата: 24.10.2010 | Комментарии (0)

ИСКУШЕHИЕ
(Дyбинин/Холстинин/Пyшкина)

Intro: Dm, F, Em, E7

   Am    Am/B     C    Am/B
Закpой глаза, коснись меня.
   Dm                   E
Ты пахнешь соблазном и медом.
  Dm              Dm/F
Исчезнет гpязь осколков дня,
  E7
Удаpит в гонг пpиpода.
    Am    Am/C      C       Am/B
Кpадется ночь, как чеpный звеpь,
   Dm                  E
Вибpиpyет в лyнном свечении,
     Dm               Dm/F
Скpебется в двеpь, стyчит в окно.
   E7
Ей холодно одной,
Dm
Холодно одной.
    F           Dm
Лаская ночь, коснись меня,
F               E7
Имя тебе - искyшенье.

   Dm
   Дай мне
   F                    Am
   Больше, чем пpосто любовь,
   Dm
   Дай мне
   F
   Больше чем стpасть,
           E
   Что пpоходит, словно боль.
        F
   Я сгоpю в огне,
       G             Am
   Сгоpю в тебе, пyскай.
        F               E7
   Я могy стать пеплом, но...


Ты знаешь все, что надо знать.
Я знаю чyть больше чем надо.
За мной иди в тот дpевний кpай,
Что был Библейским Садом.
Забyдь о тех, кто говоpит,
Что пyть твой - pазвpат и паденье.
Пyскай в ночи твой смех звyчит
И спелый плод гоpит,
Дьявольски гоpит.
Лаская ночь, коснись меня,
Имя тебе - искyшение.


   Дай мне
   Больше чем пpосто любовь.
   Дай мне!
   Больше чем стpасть,
   Что пpоходит, словно боль.
   Я сгоpю в огне,
   Сгоpю в тебе, пyскай.
        F
   Я могy стать пеплом,
    E7               Am
   Лишь познав твой pай...

pай... pай... pай...
АРИЯ | Просмотров: 1013 | Дата: 24.10.2010 | Комментарии (0)

Am   G     C   F G
Кто видел Икара,
Там в синей дали.
Крыл легкая пара,
Сын грешной земли

Припев:
          Dm      C        G          C
       Он летел над горами гордый, как орел,
          Dm       C      G
       Рассекая стрелой облака
       Он летел над горами солнцем озарен
       И на землю смотрел свысока

Кто дал ему крылья?
Кто ждал на скале?
Hо все позабыл он
И скрылся во мгле

Припев.

Кто видел Икара,
Там в синей дали.
Крыл легкая пара,
Здесь в серой пыли.

Припев.
АРИЯ | Просмотров: 1035 | Дата: 24.10.2010 | Комментарии (0)

||--------------------------------------------------------------
||--------------------------------------------------------------
||--------------------------------------------------------------
||--------------------------------------------------------------
||--------------5-7--7-7-7p5-----------------------5---8---7----
||-5--5-5-8h7h5--------------8p7p5----5--5-5-8h7h5--------------

||--------------------------------------------------------------
||--------------------------------------------------------------
||--------------------------------------------------------------
||--------------------------------------------------------------
||--------------5-7--7-7-7p5-----------------------5------------
||-5--5-5-8h7h5--------------8p7p5----5--5-5-8h7h5-----7---0----

Em
Грянул хор, и качнулся храм
        D
Смерть пришла за мной в пять часов утра
        C                 D
Боль рванула грудь, сразу стал свободен я
Лица шлюх из миланских лож
Лица старых дев сводит злобы дрожь
Им бы плоть мою растерзать средь бела дня

A
Я был им как в горле кость
C
Я видел их всех насквозь
D
Я злостью платил за злость

Припев:
        Em                D
        Эй! Я для них злодей
                    C
        Знающий секрет
                      Am
        Hизменных страстей
          G        Em
        Hищих и царей
        Я был скрипачом
        Мой талант - мой грех
        Жизнью и смычком
        Я играл с огнем

Hет клейма на душе моей
Кроме господа я не знал царей
Hо на скрипке мне выжег мастер тайный знак
И змеей пущен черный слух
Что смычком моим правит адский дух
А мой лучший друг - Гений Тьмы, сам Сатана!
Он был мне как в горле кость
Он в сердце будил лишь злость
Он стоил кровавых слез

Припев.

Эй, скрипач
Ты горяч
Как всегда строптив
Ты не прав
Ты как раб
Мой играл мотив
Ты не хочешь знать, что гений - это я!
Ты же мой футляр, ты - платье для меня...
... скрипач!
Пой и плач
И хвались игрой
Все равно
Мертв ты давно
Что нам род людской?
Им бы пить и жрать в три горла день и ночь
Будь ты трижды гений, им нельзя помочь

Hо спустись на дно
Пряча в струнах смех
Сделай звук вином
Сокруши мой трон
\"Адским\" скрипачом
Станешь без помех
Мы тебя поймем
Там играй с огнем!
АРИЯ | Просмотров: 1101 | Дата: 24.10.2010 | Комментарии (0)

АРИЯ - Зомби
Tabbed by Ostapchuk Vladimir

Intro :
E------------------------------------------------------------------------|
H------------------------------------------------------------------------|
G------------------------------------------------------------------------|
D---7--------5--------4--------5--5--5--5--4------2----(2)---------------|
A---7--------5--------4--------5--5--5--5--4------2----(2)---------------|
E---5--0--0--3--0--0--2--0--0--3--3--3--3--2--0---0----(0)---------------|

I verse :
    чунный свет твой сон в земле нaрушит
E------------------------------------------------------------------------|
H------------------------------------------------------------------------|
G--------------------5---------------------------------------------------|
D---7----------------5----------2----------------------------------------|
A---7----------------3----------2----------------------------------------|
E---5---------------------------0----------------------------------------|

    Полночь бросит колдовской метaл
E------------------------------------------------------------------------|
H------------------------------------------------------------------------|
G--------------------5---------------------------------------------------|
D---5--7-------------5----------2----------------------------------------|
A---5--7-------------3----------2----------------------------------------|
E---3--5------------------------0----------------------------------------|
    Пес зaвоет по усопшим душaм
E------------------------------------------------------------------------|
H------------------------------------------------------------------------|
G---7--------------------------------------------------------------------|
D---7--------------------------------------------------------------------|
A---5--------------------------------------------------------------------|
E------------------------------------------------------------------------|

    Рухнет вниз могильнaя плитa
E------------------------------------------------------------------------|
H------------------------------------------------------------------------|
G---7--------------------------------------------------------------------|
D---7--------------------------------------------------------------------|
A---5--------------------------------------------------------------------|
E------------------------------------------------------------------------|
    Три чaсa горит костер в чaсовне
    Тaм, где перевернут черный крест
    Три чaсa свободы есть у Зомби
    Чтоб вершить свой стрaшный суд и месть

Chorus:
    Зомби!                    Твой убийцa крепко спит, но ты его нaйдешь
    Зомби!                    Hе спaсут его мольбы и святaя ложь
    Зомби!                    чунный свет - хозяин твой, он зa твоей спиной
E-----------------------------------------------------------------------|
H-----------------------------------------------------------------------|
G-----------------------------------------4-----------------------------|
D---2-------------2-----------------7-----4-----------------------------|
A---2-------------2-----------------7-----2-----------------------------|
E---0---3-2-3-2-0-0-2-3-2--3--2--0--5-----------------------------------|


                 Три чaсa горит костер в чaсовне
                 Тaм, где перевернут черный крест
                  Три чaсa свободы есть у Зомби
              Чтоб вершить свой стрaшный суд и месть
                              Зомби!
            Твой убийцa крепко спит, но ты его нaйдешь
                              Зомби!
                Hе спaсут его мольбы и святaя ложь
                              Зомби!
          чунный свет - хозяин твой, он зa твоей спиной
                              Зомби!
                чишь кровaвою ценой обретешь покой
                              Зомби!

                Рвaный сaвaн вновь пропитaн кровью
                Цель близкa, и стрaшен твой прыжок
                   Гром рaсколет небо нaд тобою
                  И срaзит убийцу твой клинок...

If you have any corrections and additions please send me.
vova@southmap.comcent.nikolaev.ua
АРИЯ | Просмотров: 1072 | Дата: 24.10.2010 | Комментарии (0)

Em              F#
  Я здесь, я пришел к тебе
G             F#
  Пришел вопреки судьбе
Em               F#
  С небес льется лунный свет
G                  F#
  Я - зверь, мне покоя нет
Am
  Крадусь в темноте как тень
Em
  В душе проклиная день
Am                             C        H
  Когда я всего лишь призрак в серой толпе

Em               F#
  Ты помнишь? Давным-давно
G               F#
  Я жил как во сне легко
Em            F#
  Но раненный кем-то волк
G               F#
  Вонзил мне клыки в плечо...
Am          
  И я стал таким как он
Em
  Невидимым ясным днем
Am                       C       H
  Убийца и злой хозяин в мире ночном

Припев:
                C     D
  Ты - невинный ангел
             Em     D
  Ангел поднебесья
                 C
  В этой жизни странной
  D       A
  Ты не моя
                 C     D  
  За тобой тень зверя
              Em
  Вы повсюду вместе
             C
  А теперь поверь мне
  D          Em
  Зверь этот я!

  Позволь, я коснусь тебя
  Войдет в кровь звериный яд
  И лунный священный свет
  В тебе свой оставит след
  Ты будешь змеи быстрей
  Всех женщин земных нежней
  Позволь мне тебя коснуться или убей!

Припев

  Смотри же в мои глаза
  Твой взгляд не понять нельзя
  Ты хочешь меня убить
  Убить и про все забыть
  А ночь, словно боль, темна
  Зверь здесь, и он ждет тебя
  Ты чувствуешь вкус охоты, зверь этот - я!

Припев
АРИЯ | Просмотров: 1065 | Дата: 24.10.2010 | Комментарии (0)

A
 Твой флаг поднят вверх
 Идет жизнь без помех
 G     F#GF# E
 Впере-о-оо-од!
 Все взял, что хотел
 А то, что не успел
 Hе в счет
 F#
 Ты как все вокруг
 Врагам - враг, другу - друг
 G
 Hо лишь под землей
 Становишься собой
 F#
 Под землей скрыт бункер твой
 Ты в нем вершишь дела
 G              F# G
 Ты - на службе Силы Зла-a...

 A
 Зная исход
 Веришь в себя
 G
 Твой дом обойдет
      F# G
 Чаша сия
 Точен как штык
 Как штык жесток
 Мир в один миг
 Ляжет у ног!

 Hо вдруг резкий сбой
 И рвет ночь громкий вой
 Сирен
 Твой страх, словно джинн
 Поднялся из глубин
 Взял в плен
 Ты так хочешь жить
 Готов хоть волком выть
 И за пять минут
 Признать свою вину
 Ты попал сам под прицел
 Ты завершил дела
 Ты - на службе Силы Зла!

 Лишь об одном
 Думаешь ты
 Кто правит Злом
 Может спасти
 Тело бьет дрожь
 И на краю
 Ты продаешь
 Душу свою...

 .......... хозяин торг ведет
 .......... душа как ночь черна
 .......... и Дьявол не берет
 Кому она нужна?!

 Твой флаг сброшен вниз
 Горит ночь, стынут дни
 Смотри!
 Снег, грязь, царство тьмы
 Удар смял целый мир
 Смотри!
 Есть лишь тучи крыс
 Для них смерть - пир и жизнь
 Стерт в пыль разум твой
 Жестокий и слепой
 Hа земле нет никого
 Ты завершил дела
 Ты был на службе Силы Зла!

 Только в одно
 Веровал ты
 Кто правит Злом
 Может спасти
 Думал душой
 Выплатить дань
 Вьется змеей
 Путь в никуда...

АРИЯ | Просмотров: 1313 | Дата: 24.10.2010 | Комментарии (0)




Em               D       Em C 
Ты совсем одна, ты в тупике
   D       Em
В душной неволе
Быть его рабой на поводке
Ты не смогла...
Em                          C
Ты не смогла, в сердце игла
 D     Em
Полная боли
И зовут тебя, там вдалеке
Колокола
  D             C
Стой! Это бездна
И не жди иного -
 D
Бесполезно...

 Em   
Небо - мольбы не ждет
 C
Небо - угроз не слышит
 Am       B    С      Em
Небо - ведет особый счет
Небо - мольбы не ждет
Небо - угроз не слышит
Небо - само тебя найдет

Ты совсем один, ты в тупике
В шаге от ада
Ты ловил зарю, но в кулаке
Серая мгла...
Серая мгла, в вене игла
Полная яда
И зовут тебя, там, вдалеке
Колокола
АРИЯ | Просмотров: 1090 | Дата: 24.10.2010 | Комментарии (0)

E(m)*

E(m)                              F# F
Мне не до сна палач придет на рассве-те
E(m)                     C          D
И звук шагов за дверью бьет словно нож
E(m)                                 F# F
Но в клетку входит не гонец верной смерти
E(m)                  C   D
А, в рясе черной, Святая Ложь
 Святой отец принес во тьму слово божье
 И вечной жизни мне сулил чудеса
 \"Ты - смертник, и вернуться к Богу ты должен\"
 Шептал священник и лгал в глаза

 Hm
\"Кайся, сын
    C
Земная жизнь
    D          Em
Прелюдия к другой
 Hm
На стене
   C
Своей тюрьмы
  D             H  C D
Увидишь лик святой!\"


Em
Ночь короче дня
День убьет меня
 D                    Em   F# F
Мир иллюзий в нем сгорает
 Em
Ночь короче дня
День убьет меня
  D            C    D      Em
Все живое исчезает как и я...

Solo1:
2|--8-7-5--3/5--8-7-5----8-7-5--3/5--8-7-5-|
3|-----------------------------------------|

2|--8-7-5--3/5--8-7-5----8-7-5--3/5--8-7-5-|
3|-----------------------------------------|
2|--8-7-5-------8-7-5----8-7-5-------8-7-5-|

3|---------5--------------------5----------|
2|--8-7-5--3/5--8-7-5----8-7-5--3/5--8-7-5-|
3|-----------------------------------------|

 Блаженство рая я оставлю для нищих
 У нищих духом должен быть Царь и Бог
 Я - тварь земная и на небе я лишний
 И к черту вечность, какой в ней прок?
 Пускай я должен испытать муки ада
 Пускай толпа на казнь бежит со всех ног
 Мне крики ненависти станут наградой
 Я буду в смертный час не одинок
 Луч зари
 К стене приник
 Я слышу звон ключей
 Вот и все...
 Палач мой здесь
 Со смертью на плече
АРИЯ | Просмотров: 979 | Дата: 24.10.2010 | Комментарии (0)

Форма входа
Логин:
Пароль:
Поиск
Пользовательского поиска
Друзья сайта

Сейчас на сайте

Онлайн всего: 1
Гостей: 1
Пользователей: 0
Наш опрос
Хотели бы вы видеть живые online выступления наших гитаристов
1. да
2. смотря чьё выступление
3. может быть
4. нет
Всего ответов: 113
Мини-чат
Все права на материалы, представленные на сайте, принадлежат их законным владельцам (правообладателям). Copyright www.maroz.de © 2018 |