Понедельник, 26.02.2024, 09:08
Приветствую Вас Гость

Тексты и аккорды



Главная » Тексты и аккорды » A » АРИЯ

Не обязательно то, что все представленные аккорды и табы, правильные. Мы все люди, каждый играет и подбирает так как ему нравится. Если знаете правильный или другой вариант, то напишите в коментарий без всяких придирок, мы будем очень рады!
В категории объявлений: 65
Показано объявлений: 1-20
Страницы: 1 2 3 4 »


Сортировать по: Дате · Названию · Рейтингу · Комментариям · Просмотрам
Условные обозначения:
* - на 6-й струне 10 9 5 7
** - на 6-й струне 10 9 5 2
Вступление:
(играется на квинтах, так что не пробуйте играть на простых аккордах)
B   C# B B# , 
E   A G F#       4 раза
Bm A G Bm G *
Bm A G Bm G **   2 раза 
Bm        A        G         Bm    
Мне никогда не войти в этот сад
   G          * (смотрите внизу) G A
В нем нет цветов для меня
Bm     A       G    Bm    
Я ненавижу штыки оград
  G          ** (смотрите внизу) G A
Бьющих в сплетение дня
Мне не хватает в закрытых садах
Воздуха, рвущего плоть
Кто слаб душою, спешит сюда
Не в силах себя побороть
 G         Em         
Сад не придуман мною
G      A
Он - реален как ты
G         Em         
Но ты идешь спокойно
   F#
В сад пустоты...
Я не люблю безнадежности спин
Верю в энергию лиц
Против движенья иду один
Нарушив условность границ
Прочь от аллеи железных святош
Холод их песен страшит
Следом за ними вошла в сад ложь
Розы подняв на свой щит
Сад не придуман мною
Он - реален как ты
Но ты идешь спокойно
В сад пустоты...
 Bm                   Bdim
Там есть все, только нет души
  Em               B
Вместо росы белый жемчуг дрожит
 Bm             Bdim
Робот птиц восковых сторожит
 Em                 F#
Сад всем диктует законы
Думать о будущем нет причин
Прошлая жизнь под контролем машин
Ты выходишь из сада живым
Но в сердце мертвая зона
  D      A     Em               F#
Прочь беги, пока хватает сил, беги
D      A            Bm    F#
На восход, в сад живо-о-о-ой
АРИЯ | Просмотров: 1996 | Дата: 24.10.2010 | Комментарии (0)

Ария - Кто ты

Подбор: Roman Alampiev (2:452/23.38)

            I
  Am Em D  C    Am Em D   C  D C
 Снова полночь,слышу чей-то голос,
  Am Em D C Am Em D  C Em  C Em
 Шепчет имя,манит и зовет меня.
Em7     D C                    Em7
 И белым   туманом на стеклах чей-то вздох оставлен.
Em7      D C                      Em
 И гаснет   вдруг пламя,хотя нет ветра.
 Am Em D   C   Am Em   D  C Em C  Em
 вижу тень я,кто-то в черном у окна...

          Припев:
   C  H7     Em
 Кто ты,наказанье или милость?
   C  H7     Em
 Кто ты,отрекаться не спеши.
  C H7       G         C
 Может за душой моей явилась?
  G      C     Em
 Только нет души...

            II
 Проклят,брошен,словно камень с неба,
 Страшно падать,только ждать еще страшней!
 все помнить и жаждать любви,но быть распятым ею.
 И мчаться к безумью,услышав голос.
 Ровно в полночь снова тень идет ко мне...
          Припев:
           solo
          Припев:
---------------------------------------------------------------------
Hемного табов:

  Em7          D   C                              Em7
 1|-3----3-----2---0----0-------------------------3-----2-0-----------
 2|---0----0-----3---1----1---4---1-----1-----4-----0-------4-1-------
 3|-----0----0---------0----0---0---0-----0-----0-----0---------0-----
 4|-2----------0----------------------2-----2-----2-------------------
 5|----------------3--------------3-----------------------------------
 6|-------------------------------------------------------------------
       И белым      туманом          на стеклах  чей-то вздох оставлен
  Em7          D   C                              Em
 1|-3----3-----2---0----0-------------------------0-------------------
 2|---0----0-----3---1----1---4---1-----1-----4-----0---4-1-0---------
 3|-----0----0---------0----0---0---0-----0-----0-----0-------1-0-----
 4|-2----------0----------------------2-----2-----2-------------------
 5|----------------3--------------3-----------------------------------
 6|-------------------------------------------------------------------
       И гаснет     вдруг пламя,   хотя нет      ветра...


в конце каждого куплета Ем:
  Em
 1|-0-------------
 2|---0-----------
 3|-----0---------
 4|-------2-0p2---
 5|---------------
 6|-------------0-



                   КТО ТЫ?  (2-й вариант)
                    (Терентьев - Пушкина)

Подбор табов и аккордов: Macknar, macknar@mail.ru
1|--------------------------------------|------------------------------|
2|--------------------------------------|------------------3--1--3--1--|
3|-2-----0-----0------------------------|-2-----0-------0--------------|
4|---4-----2-----2--4-----0^4^5-2---0-2-|---4-----2---2----0-----0-----|
5|-----------2--------5-0---------0-----|-----------2---------0-----0--|
6|-----0--------------------------------|-----0------------------------|

1|--------------------------------------|-------------------------------
2|--------------------------------------|-------0-------0--3--1--0------
3|-2-----0-----0------------------------|-2-------0---0-------------2---
4|---4-----2-----2--4-----0^4^5-2---0-2-|---4-------2------0-----0--4---
5|-----------2--------5-0---------0-----|---------------------0---------
6|-----0--------------------------------|-----0-------------------------
1|-0--------------|
2|---0------------|
3|-------2--------|
4|-----5---4^5-2--|
5|----------------|
6|----------------|

Снова полночь -
слышу чей-то голос,
Шепчет имя,
манит и зовет меня...


1|-----------------|-----------------|-----------------|------------------|
2|-8---8-7-----7---|-5---5-4-----4---|-1-----1-----1---|------------------|
3|---9-----8-----8-|---5-----5-----5-|---2-----2-----2-|-5-----5----------|
4|-----------9-----|-----------7-----|-----2-----2-----|---5--------------|
5|-----------------|-----------------|-----------------|-----3----3-2-----|
6|-----------------|-----------------|-----------------|--------------3-2-|
И белым
Туманом
Hа стеклах чей-то вздох оставлен,
И гаснет вдруг пламя
Хотя нет ветра.
вижу тень я -
Кто-то в черном у окна.

  C  B       Em        G
Кто ты? Hаказанье или милость?
  C  B       Em           G
Кто ты? Отрекаться не спеши!
 C B         Em        G
Может, за душой моей явилась?
 C
Только
 Am
нет
   Em
души.
Проклят, брошен
словно камень с неба,
Страшно падать,
только ждать еще страшней!
все помнить
И жаждать
чюбви, но быть распятым ею,
И мчаться
К безумью,
Услышав Голос...

Ровно полночь -
снова тень идет ко мне...
АРИЯ | Просмотров: 3181 | Дата: 24.10.2010 | Комментарии (0)

Ария - Кровь за кровь

E-------------------------------------|------------------------------|
H----8---7----------------------------|---7--------------------------|
G---9--------9---7-------9------------|---7---9---7----------8-------|
D--9-------------------10-------------|---7-----------10----9--------|
A--------------------10---------------|--------------------9---------|
E-------------------------------------|------------------------------|
E-------------------------------------|-----------------------------||
H----8---7-------8------10--8---------|--7--8--7--8--7h8p7----------||
G---9--------9---------9-----------9--|--7------------------7-----9-||
D--9-----------------10----------10---|--7-----------------------9--||
A------------------------------10-----|------------------------10---||
E-------------------------------------|-----------------------------||

Main riff :
E-------------------------------------|-----------------------------------|
H-------------------------------------|-----------------------------------|
G-------------------------------------|-----------------------------------|
D--7---------8---------7--------------|-----------------------------------|
A-----8--5------8--5------8--5---5----|--5--5-----5--7--8--7--5h7p5-----5-|
E-------------------------------------|--------8---------------------8----|

E-------------------------------------|-----------------------------------|
H-------------------------------------|-----------------------------------|
G-------------------------------------|-----------------------------------|
D--7---------8---------7--------------|-----------------------------------|
A-----8--5------8--5------8--5---5----|--5--5-----5--7--8--7--5h7p5-------|
E-------------------------------------|--------8---------------------8--5-|
E-------------------------------------|-----------------------------------|
H-------------------------------------|-----------------------------------|
G-------------------------------------|-----------------------------------|
D--7---------8---------7--------------|-----------------------------------|
A-----8--5------8--5------8--5---5----|--5--5-----5--7--8--7--5h7p5--8--5-|
E-------------------------------------|--------8--------------------------|

E-------------------------------------|-----------------------------------|
H-------------------------------------|-----------------------------------|
G-------------------------------------|-----------------------------------|
D--7---------8---------7--------------|---------------------------------7-|
A-----8--5------8--5------8--5---5----|--5--5-----5--7--8--7--5h7p5--8----|
E-------------------------------------|--------8--------------------------|
I verse :
   G5                                   A5
   Ты готов сорвaться в бой....  Понтий Пилaт
E-------------------------------|-----------------------------------------|
H-------------------------------|---------------------------------11--10--|
G-------------------------------|-----------------------------------------|
D---5---------------------------|----------7----------8--7----------------|
A---5---------------------------|----------7----8--7--------8--7----------|
E---3---------------------------|----------5------------------------------|
 A
Древний град Иерусалим довлеет над тобой
H
Понтий Пилат
 A                         H
Ты готов сорваться в Рим, махнуть на все рукой
 A             H
Забрав с собой солдат

 G#
Ты устал от зтих лиц
           A
От чужой, неискренней земли
G#
Боль тупая бьет в висок
A            H C    H
Дню мучений выпал срок
Em
Кровь за кровь!
     D                 Em
в том воля не людей, а богов
 Em
Смерть за смерть!
    D                       H
Ты должен не роптать, а терпеть
Em
Здесь твой ад!
D                     Em
Ты знаешь - нет дороги назад
Em
Пей свой яд!
 D                      H
Пей, прокуратор Понтий Пилат

Hад Голгофой - траур мглы ты чувствуешь беду
Ты сам не свой
Меж солдат, от зноя злых, твоих решений ждут
Два вора и святой
Он безумен - видит Бог
виноват, лишь в том, что одинок
Hо ты шепчешь приговор
                  Иудейский царь распят как вор!

                         Em           C
* (Так игpается         в серебристый сон
* только здесь)           D            H
*                        Ты бы с ним ушел
*                     По дороге вечных звезд
*                   Hад простором строгих гор
*                        Ты бы перед ним
*                        а колени встал
*                  Hе стыдясь ни слов, ни слез
*                  Кто любил - тот и распял...
Ты хотел найти покой на дне озерных вод
Понтий Пилат
Ты стал сам себе судьей, но смерть твоя не в счет
Для вечной Силы Зла

Дьявол помнит о тебе
Он в страстную ночь идет к воде
Жаждет смыть с себя позор
Hо все тщетно до сих пор.
АРИЯ | Просмотров: 2070 | Дата: 24.10.2010 | Комментарии (0)

 Dm
 Древние рощи полны голосов
C        B      Dm      
 Шепотом трав и камней
    Dm
 К северу тянется дым от костров
  C            B       Dm
 Враг рыщет в той стороне
 Dm   G#m    Dm
 Духи грозы бьют в барабан
      C      B        Dm
 Из молний куют нам мечи
 Dm    G#m       Dm
 Мы принесём жертву богам
    C      B      Dm
 Кровью своей напоим
 
 
 Em
 Против нас блеск византийских церквей
 D         C      Em
 Пышность пиров и даров
 Em
 Мы придаём смерти наших детей
 D         C      Em
 Зная жестокость врагов
   Em    Bm   Em
 Знаки луны грозят нам бедой
 D       C       Em
 Стрелы поют об одном
  Em     Bm       Em
 Выбор жесток - крещение водой
 D      C      Em
 Или крещение огнём
 
 Припев:
Dm       B    C          Dm
 Ооооо, Ооооо, крещение огнём
 Dm       B    C          Dm
 Ооооо, Ооооо, крещение огнём
 Em     C     D         Em    
 Ооооо, Ооооо, крещение огнём
 Em     C     D         Em
 Ооооо, Ооооо, крещение огнём
 
 Мы обезумев от гнева дрались
 Веря в бессмертие душ
 Станет погибший не горстью земли
 А стражем в небесном саду
 Вниз по реке идолам плыть
 Некому бить им поклон
 Нас больше нет - стоит ли жить
 В мире крещённом огнём
 
 Припев:
Dm       B    C          Dm
 Ооооо, Ооооо, крещение огнём
 Dm     B      C          Dm
 Ооооо, Ооооо, крещение огнём
 Em     C    D         Em    
 Ооооо, Ооооо, крещение огнём
 Em     C    D         Em 
 Ооооо, Ооооо, крещение огнём
 
 
 Dm
 Древние рощи веками молчат
 C           B       Dm     
 В мире, крещённом огнём
АРИЯ | Просмотров: 2022 | Дата: 24.10.2010 | Комментарии (1)

Am                    Asus4
Я о ней мечтал всю жизнь
Am                       C
Наконец мои желанья сбылись
G        Am
Вот она. Вот она!

Вся блестит и манит взгляд
На такой не грех отправиться в ад
Вот она. Вот она!

F
Чем дальше - тем больше
                   G
Чем больше - тем сильней
F
Друзей душит зависть
                  G
Плевать мне на друзей
F                           G
И днем, и ночью я буду мчаться
По черной полосе
F
Слились воедино
                G
Два призрака шоссе!

        Am
        Я - король дороги
             F
        Я - король от Бога
        G
        В ад или рай
              E
        Сама выбирай!

        Жить как все мне скучно
        Мне и смерть игрушка
        Скорость в крови
        Удачу лови!

Я о ней мечтал всю жизнь
И с небес она спускается вниз
Вот она
Вот она!

Золотой волоной волос
Закружила и накрыла всерьез
Вот она
Вот она!

Чем дальше - тем больше
Чем больше - тем сильней
Нас двое в машине
А ночь все горячей
И днем, и ночью мы будем мчаться
По черной полосе
Слились воедино
Два призрака шоссе!

F                       G
Мы на лету срывали вечность
      Dm             E
А дорога шипела змеей
F                    G
Тела светились словно свечи
  Dm              E
В этой гонке такой неземной
Неземной...

Я очнулся ото сна
И увидел свою жизнь из окна
Вот она
Вот она!

Старый кузов без колес
И подруга, что целует взасос
Вот она
Вот она!

Чем дальше - тем больше
Чем больше - тем сильней
Все те же, все то же
А ночь все холодней
И днем, и ночью я пил не мало
За призраков шоссе...
Их больше не стало
На черной полосе

   Asus4
|----|----|----|
|----|----|--*-|
|----|--*-|----|
|----|--*-|----|
|----|----|----|
|----|----|----|
АРИЯ | Просмотров: 2192 | Дата: 24.10.2010 | Комментарии (0)

Проигрыш  Bb5
          Bb5  E5  Bb5  F#5  Bb5
         
Bbm
  Боги прокляли спятивший Рим
G#
  Город брошенных женщин и калек,
G
  Здесь глотают отравленный дым,
F#                    H5
  Режут лезвием вены
Bbm
  Здесь по праздникам ходят смотреть,
G# 
  Как в агонии бьётся человек,
G
  Как пирует свирепая смерть
F#                F
  В жёлтом круге арены.

D#m
  Сила приносит свободу,
       Bbm    G#         D#
  Побеждай и станешь звездой
              D#m
  А может обретёшь покой

        Bbm        C#    
  Твой враг в пыли жалок и слаб,
  D#               D#m
  Загнанный зверь, раненный раб
   Bbm           C#            D#                F#  G#
  Еще секунда и скажет \"Убей!\" перст императора
     Bbm        C#
  Святой судьбе не прикословь!
  D#           D#m
  Воет толпа - чувствует кровь,
     Bbm             C#              D#               F#  G#
  Не стоит скорби ни жен, ни друзей, жизнь гладиатора
      Bbm
  Колизей

Проигрыш  Bb5  E5  Bb5  F#5  Bb5

  Словно псы, что дерутся за кость,
  Обреченные рвут друг другу плоть.
  В их глазах не азарт и не злость,
  Ничего кроме боли

  Ты один не сломался, не лег
  От ударов хранил тебя Господь
  Видишь, Цезарь сошел на песок
  Наградить тебя волей

  Сила приносит свободу,
  Побеждай и станешь звездой
  А может
  Обретешь покой

  Твой враг в пыли
  Жалок и слаб,
  Загнанный зверь,
  Раненый раб
  Еще секунда и скажет \"Убей!\"
  Перст императора

  Святой судьбе
  Не прекословь!
  Воет толпа,
  Чувствует кровь,
  Не стоит скорби
  Ни жен, ни друзей
  Жизнь гладиатора
  Колизей

  Помнишь,
  Ты ведь помнишь,
  Ты был гордым мудрым вождем
  Помнишь,
  Ты ведь помнишь,
  Как вошли солдаты в твой дом
  Ты встречал рассвет
  Среди выжженных скал
  Время шло, и вот
  Час расплаты настал

  Хлеба и зрелищ народу
  Через край!
  Сила приносит свободу,
  Побеждай!

  Твой враг в пыли
  Жалок и слаб,
  Загнанный зверь,
  Раненый раб
  И выбил искры из серых камней
  Меч гладиатора

  Святой судьбе
  Не прекословь!
  Воет толпа,
  Чувствует кровь,
  Не стоит скорби
  Ни жен, ни друзей
  Жизнь императора
  Колизей
АРИЯ | Просмотров: 1912 | Дата: 24.10.2010 | Комментарии (0)

ИСКУШЕHИЕ
(Дyбинин/Холстинин/Пyшкина)

Intro: Dm, F, Em, E7

   Am    Am/B     C    Am/B
Закpой глаза, коснись меня.
   Dm                   E
Ты пахнешь соблазном и медом.
  Dm              Dm/F
Исчезнет гpязь осколков дня,
  E7
Удаpит в гонг пpиpода.
    Am    Am/C      C       Am/B
Кpадется ночь, как чеpный звеpь,
   Dm                  E
Вибpиpyет в лyнном свечении,
     Dm               Dm/F
Скpебется в двеpь, стyчит в окно.
   E7
Ей холодно одной,
Dm
Холодно одной.
    F           Dm
Лаская ночь, коснись меня,
F               E7
Имя тебе - искyшенье.

   Dm
   Дай мне
   F                    Am
   Больше, чем пpосто любовь,
   Dm
   Дай мне
   F
   Больше чем стpасть,
           E
   Что пpоходит, словно боль.
        F
   Я сгоpю в огне,
       G             Am
   Сгоpю в тебе, пyскай.
        F               E7
   Я могy стать пеплом, но...


Ты знаешь все, что надо знать.
Я знаю чyть больше чем надо.
За мной иди в тот дpевний кpай,
Что был Библейским Садом.
Забyдь о тех, кто говоpит,
Что пyть твой - pазвpат и паденье.
Пyскай в ночи твой смех звyчит
И спелый плод гоpит,
Дьявольски гоpит.
Лаская ночь, коснись меня,
Имя тебе - искyшение.


   Дай мне
   Больше чем пpосто любовь.
   Дай мне!
   Больше чем стpасть,
   Что пpоходит, словно боль.
   Я сгоpю в огне,
   Сгоpю в тебе, пyскай.
        F
   Я могy стать пеплом,
    E7               Am
   Лишь познав твой pай...

pай... pай... pай...
АРИЯ | Просмотров: 1765 | Дата: 24.10.2010 | Комментарии (0)

Am   G     C   F G
Кто видел Икара,
Там в синей дали.
Крыл легкая пара,
Сын грешной земли

Припев:
          Dm      C        G          C
       Он летел над горами гордый, как орел,
          Dm       C      G
       Рассекая стрелой облака
       Он летел над горами солнцем озарен
       И на землю смотрел свысока

Кто дал ему крылья?
Кто ждал на скале?
Hо все позабыл он
И скрылся во мгле

Припев.

Кто видел Икара,
Там в синей дали.
Крыл легкая пара,
Здесь в серой пыли.

Припев.
АРИЯ | Просмотров: 1815 | Дата: 24.10.2010 | Комментарии (0)

||--------------------------------------------------------------
||--------------------------------------------------------------
||--------------------------------------------------------------
||--------------------------------------------------------------
||--------------5-7--7-7-7p5-----------------------5---8---7----
||-5--5-5-8h7h5--------------8p7p5----5--5-5-8h7h5--------------

||--------------------------------------------------------------
||--------------------------------------------------------------
||--------------------------------------------------------------
||--------------------------------------------------------------
||--------------5-7--7-7-7p5-----------------------5------------
||-5--5-5-8h7h5--------------8p7p5----5--5-5-8h7h5-----7---0----

Em
Грянул хор, и качнулся храм
        D
Смерть пришла за мной в пять часов утра
        C                 D
Боль рванула грудь, сразу стал свободен я
Лица шлюх из миланских лож
Лица старых дев сводит злобы дрожь
Им бы плоть мою растерзать средь бела дня

A
Я был им как в горле кость
C
Я видел их всех насквозь
D
Я злостью платил за злость

Припев:
        Em                D
        Эй! Я для них злодей
                    C
        Знающий секрет
                      Am
        Hизменных страстей
          G        Em
        Hищих и царей
        Я был скрипачом
        Мой талант - мой грех
        Жизнью и смычком
        Я играл с огнем

Hет клейма на душе моей
Кроме господа я не знал царей
Hо на скрипке мне выжег мастер тайный знак
И змеей пущен черный слух
Что смычком моим правит адский дух
А мой лучший друг - Гений Тьмы, сам Сатана!
Он был мне как в горле кость
Он в сердце будил лишь злость
Он стоил кровавых слез

Припев.

Эй, скрипач
Ты горяч
Как всегда строптив
Ты не прав
Ты как раб
Мой играл мотив
Ты не хочешь знать, что гений - это я!
Ты же мой футляр, ты - платье для меня...
... скрипач!
Пой и плач
И хвались игрой
Все равно
Мертв ты давно
Что нам род людской?
Им бы пить и жрать в три горла день и ночь
Будь ты трижды гений, им нельзя помочь

Hо спустись на дно
Пряча в струнах смех
Сделай звук вином
Сокруши мой трон
\"Адским\" скрипачом
Станешь без помех
Мы тебя поймем
Там играй с огнем!
АРИЯ | Просмотров: 1892 | Дата: 24.10.2010 | Комментарии (0)

АРИЯ - Зомби
Tabbed by Ostapchuk Vladimir

Intro :
E------------------------------------------------------------------------|
H------------------------------------------------------------------------|
G------------------------------------------------------------------------|
D---7--------5--------4--------5--5--5--5--4------2----(2)---------------|
A---7--------5--------4--------5--5--5--5--4------2----(2)---------------|
E---5--0--0--3--0--0--2--0--0--3--3--3--3--2--0---0----(0)---------------|

I verse :
    чунный свет твой сон в земле нaрушит
E------------------------------------------------------------------------|
H------------------------------------------------------------------------|
G--------------------5---------------------------------------------------|
D---7----------------5----------2----------------------------------------|
A---7----------------3----------2----------------------------------------|
E---5---------------------------0----------------------------------------|

    Полночь бросит колдовской метaл
E------------------------------------------------------------------------|
H------------------------------------------------------------------------|
G--------------------5---------------------------------------------------|
D---5--7-------------5----------2----------------------------------------|
A---5--7-------------3----------2----------------------------------------|
E---3--5------------------------0----------------------------------------|
    Пес зaвоет по усопшим душaм
E------------------------------------------------------------------------|
H------------------------------------------------------------------------|
G---7--------------------------------------------------------------------|
D---7--------------------------------------------------------------------|
A---5--------------------------------------------------------------------|
E------------------------------------------------------------------------|

    Рухнет вниз могильнaя плитa
E------------------------------------------------------------------------|
H------------------------------------------------------------------------|
G---7--------------------------------------------------------------------|
D---7--------------------------------------------------------------------|
A---5--------------------------------------------------------------------|
E------------------------------------------------------------------------|
    Три чaсa горит костер в чaсовне
    Тaм, где перевернут черный крест
    Три чaсa свободы есть у Зомби
    Чтоб вершить свой стрaшный суд и месть

Chorus:
    Зомби!                    Твой убийцa крепко спит, но ты его нaйдешь
    Зомби!                    Hе спaсут его мольбы и святaя ложь
    Зомби!                    чунный свет - хозяин твой, он зa твоей спиной
E-----------------------------------------------------------------------|
H-----------------------------------------------------------------------|
G-----------------------------------------4-----------------------------|
D---2-------------2-----------------7-----4-----------------------------|
A---2-------------2-----------------7-----2-----------------------------|
E---0---3-2-3-2-0-0-2-3-2--3--2--0--5-----------------------------------|


                 Три чaсa горит костер в чaсовне
                 Тaм, где перевернут черный крест
                  Три чaсa свободы есть у Зомби
              Чтоб вершить свой стрaшный суд и месть
                              Зомби!
            Твой убийцa крепко спит, но ты его нaйдешь
                              Зомби!
                Hе спaсут его мольбы и святaя ложь
                              Зомби!
          чунный свет - хозяин твой, он зa твоей спиной
                              Зомби!
                чишь кровaвою ценой обретешь покой
                              Зомби!

                Рвaный сaвaн вновь пропитaн кровью
                Цель близкa, и стрaшен твой прыжок
                   Гром рaсколет небо нaд тобою
                  И срaзит убийцу твой клинок...

If you have any corrections and additions please send me.
vova@southmap.comcent.nikolaev.ua
АРИЯ | Просмотров: 1807 | Дата: 24.10.2010 | Комментарии (0)

Em              F#
  Я здесь, я пришел к тебе
G             F#
  Пришел вопреки судьбе
Em               F#
  С небес льется лунный свет
G                  F#
  Я - зверь, мне покоя нет
Am
  Крадусь в темноте как тень
Em
  В душе проклиная день
Am                             C        H
  Когда я всего лишь призрак в серой толпе

Em               F#
  Ты помнишь? Давным-давно
G               F#
  Я жил как во сне легко
Em            F#
  Но раненный кем-то волк
G               F#
  Вонзил мне клыки в плечо...
Am          
  И я стал таким как он
Em
  Невидимым ясным днем
Am                       C       H
  Убийца и злой хозяин в мире ночном

Припев:
                C     D
  Ты - невинный ангел
             Em     D
  Ангел поднебесья
                 C
  В этой жизни странной
  D       A
  Ты не моя
                 C     D  
  За тобой тень зверя
              Em
  Вы повсюду вместе
             C
  А теперь поверь мне
  D          Em
  Зверь этот я!

  Позволь, я коснусь тебя
  Войдет в кровь звериный яд
  И лунный священный свет
  В тебе свой оставит след
  Ты будешь змеи быстрей
  Всех женщин земных нежней
  Позволь мне тебя коснуться или убей!

Припев

  Смотри же в мои глаза
  Твой взгляд не понять нельзя
  Ты хочешь меня убить
  Убить и про все забыть
  А ночь, словно боль, темна
  Зверь здесь, и он ждет тебя
  Ты чувствуешь вкус охоты, зверь этот - я!

Припев
АРИЯ | Просмотров: 1792 | Дата: 24.10.2010 | Комментарии (0)

A
 Твой флаг поднят вверх
 Идет жизнь без помех
 G     F#GF# E
 Впере-о-оо-од!
 Все взял, что хотел
 А то, что не успел
 Hе в счет
 F#
 Ты как все вокруг
 Врагам - враг, другу - друг
 G
 Hо лишь под землей
 Становишься собой
 F#
 Под землей скрыт бункер твой
 Ты в нем вершишь дела
 G              F# G
 Ты - на службе Силы Зла-a...

 A
 Зная исход
 Веришь в себя
 G
 Твой дом обойдет
      F# G
 Чаша сия
 Точен как штык
 Как штык жесток
 Мир в один миг
 Ляжет у ног!

 Hо вдруг резкий сбой
 И рвет ночь громкий вой
 Сирен
 Твой страх, словно джинн
 Поднялся из глубин
 Взял в плен
 Ты так хочешь жить
 Готов хоть волком выть
 И за пять минут
 Признать свою вину
 Ты попал сам под прицел
 Ты завершил дела
 Ты - на службе Силы Зла!

 Лишь об одном
 Думаешь ты
 Кто правит Злом
 Может спасти
 Тело бьет дрожь
 И на краю
 Ты продаешь
 Душу свою...

 .......... хозяин торг ведет
 .......... душа как ночь черна
 .......... и Дьявол не берет
 Кому она нужна?!

 Твой флаг сброшен вниз
 Горит ночь, стынут дни
 Смотри!
 Снег, грязь, царство тьмы
 Удар смял целый мир
 Смотри!
 Есть лишь тучи крыс
 Для них смерть - пир и жизнь
 Стерт в пыль разум твой
 Жестокий и слепой
 Hа земле нет никого
 Ты завершил дела
 Ты был на службе Силы Зла!

 Только в одно
 Веровал ты
 Кто правит Злом
 Может спасти
 Думал душой
 Выплатить дань
 Вьется змеей
 Путь в никуда...

АРИЯ | Просмотров: 2104 | Дата: 24.10.2010 | Комментарии (0)




Em               D       Em C 
Ты совсем одна, ты в тупике
   D       Em
В душной неволе
Быть его рабой на поводке
Ты не смогла...
Em                          C
Ты не смогла, в сердце игла
 D     Em
Полная боли
И зовут тебя, там вдалеке
Колокола
  D             C
Стой! Это бездна
И не жди иного -
 D
Бесполезно...

 Em   
Небо - мольбы не ждет
 C
Небо - угроз не слышит
 Am       B    С      Em
Небо - ведет особый счет
Небо - мольбы не ждет
Небо - угроз не слышит
Небо - само тебя найдет

Ты совсем один, ты в тупике
В шаге от ада
Ты ловил зарю, но в кулаке
Серая мгла...
Серая мгла, в вене игла
Полная яда
И зовут тебя, там, вдалеке
Колокола
АРИЯ | Просмотров: 1846 | Дата: 24.10.2010 | Комментарии (0)

E(m)*

E(m)                              F# F
Мне не до сна палач придет на рассве-те
E(m)                     C          D
И звук шагов за дверью бьет словно нож
E(m)                                 F# F
Но в клетку входит не гонец верной смерти
E(m)                  C   D
А, в рясе черной, Святая Ложь
 Святой отец принес во тьму слово божье
 И вечной жизни мне сулил чудеса
 \"Ты - смертник, и вернуться к Богу ты должен\"
 Шептал священник и лгал в глаза

 Hm
\"Кайся, сын
    C
Земная жизнь
    D          Em
Прелюдия к другой
 Hm
На стене
   C
Своей тюрьмы
  D             H  C D
Увидишь лик святой!\"


Em
Ночь короче дня
День убьет меня
 D                    Em   F# F
Мир иллюзий в нем сгорает
 Em
Ночь короче дня
День убьет меня
  D            C    D      Em
Все живое исчезает как и я...

Solo1:
2|--8-7-5--3/5--8-7-5----8-7-5--3/5--8-7-5-|
3|-----------------------------------------|

2|--8-7-5--3/5--8-7-5----8-7-5--3/5--8-7-5-|
3|-----------------------------------------|
2|--8-7-5-------8-7-5----8-7-5-------8-7-5-|

3|---------5--------------------5----------|
2|--8-7-5--3/5--8-7-5----8-7-5--3/5--8-7-5-|
3|-----------------------------------------|

 Блаженство рая я оставлю для нищих
 У нищих духом должен быть Царь и Бог
 Я - тварь земная и на небе я лишний
 И к черту вечность, какой в ней прок?
 Пускай я должен испытать муки ада
 Пускай толпа на казнь бежит со всех ног
 Мне крики ненависти станут наградой
 Я буду в смертный час не одинок
 Луч зари
 К стене приник
 Я слышу звон ключей
 Вот и все...
 Палач мой здесь
 Со смертью на плече
АРИЯ | Просмотров: 1762 | Дата: 24.10.2010 | Комментарии (0)

АРИЯ - Обман

1||-----------------|-----------------|-----------------|------------------||
2||-----------------|-----------------|-----------------|------------------||
3||-----------------|-----------------|-----------------|------------------||
4||-----2---2---2---|-----2---2---2---|-----2---2---2---|-----2--------2---||
5||---2---2---2---2-|---2---2---2---2-|---2---2---2---2-|---2---2----2---2-||
6||-0---------------|-0---------------|-0---------------|-0--------1-------||

Em
в рaссветный чaс шaкaл, о голоде зaбыв,
            C7
Следит с холмa
            Em
Зa мрaчной конницей вдaли.
Сегодня черный день - влaдыкa мирa мертв,
           C7
И стaр, и мaл
          Em
Hе могут слез сдержaть своих.

Am
Он добрый повелитель,
Adim7           Em
Он солнцем был и был луной,
Am
Империя остaлaсь
Adim7
Его вдовой.

Он будет погребен в нефритовом гробу
в степи пустой,
Где грезит пaдaлью шaкaл,
И тысячa коней зaтопчет путь к нему,
Чтоб плaч людской
Сон мертвецa не осквернял.


Шaкaл пролaет хрипло,
Что мертвый цaрь - ему родня:
Одни клыки и жaдность,
И кровь однa.
Припев:
             Em          C7        Am9       D
   Это все обмaн, что он был сaмым добрым цaрем,
              Em         C7       Am9      D
   Это все непрaвдa - он прaвил огнем и мечом,
             Em          C7      Am9        D
   Это все обмaн, я вaш цaрь, и один только я.
              Em      C7             Am9      D
   чюди, кaк звери, когдa влaсть нaд миром дaна,
              Em
   Это все обмaн.


Шaмaны и жрецы шaкaлa проклянут,
И нa бегу
Пронзит предaтеля копье.
Цaрь должен быть святым, и прaво не дaно
Свергaть зверью
С небес величие его.

А цaрский сын смеется,
Шaкaлий дух в себе хрaня:
Одни клыки и жaдность,
И кровь однa.

Припев.
C  Bm                     Am
ветер, древний житель степной,
C  Bm                     Am  Bdim7
Помнит до сих пор хриплый вой...

Припев.
АРИЯ | Просмотров: 1608 | Дата: 24.10.2010 | Комментарии (0)

Ария - Отшельник

intro solo:

|---------------|------0----1----|--5------------|
|--3------------|----------------|---------------|
|---------------|----------------|---------------|
|---------------|----------------|---------------|
|---------------|----------------|---------------|
|---------------|----------------|---------------|

----------------|---------------|-------1-3--1----|--0------------|
------6---------|--8------------|-----------------|---------------|
-----------7----|---------------|-----------------|---------------|
----------------|---------------|-----------------|---------------|
----------------|---------------|-----------------|---------------|
----------------|---------------|-----------------|---------------|

---------------|---------------|------0----1----|--5------------|
--1------------|--3------------|----------------|---------------|
---------------|---------------|----------------|---------------|
---------------|---------------|----------------|---------------|
---------------|---------------|----------------|---------------|
---------------|---------------|----------------|---------------|

----------------|---------------|---------3-------|--0------------|
------6---------|--8------------|------6-----6----|---------------|
-----------7----|---------------|-----------------|---------------|
----------------|---------------|-----------------|---------------|
----------------|---------------|-----------------|---------------|
----------------|---------------|-----------------|---------------|

--8------------|---------------|------0----5----|--10------------|
---------------|--6------------|------8----6----|--10------------|
---------------|--7------------|----------------|----------------|
---------------|---------------|----------------|----------------|
---------------|---------------|----------------|----------------|
---------------|---------------|----------------|----------------|

------------------|--8------------|-------6-8--6----|--5------------|
------10----------|--8------------|-------6-8--6----|--5------------|
------10----10----|---------------|-----------------|---------------|
------------12----|---------------|-----------------|---------------|
------------------|---------------|-----------------|---------------|
------------------|---------------|-----------------|---------------|

---------------|---------------|------0----5----|--10------------|
--5------------|--6------------|------8----6----|--10------------|
--5------------|--7------------|----------------|----------------|
---------------|---------------|----------------|----------------|
---------------|---------------|----------------|----------------|
---------------|---------------|----------------|----------------|

------------------|--8------------|------6--8--6----|--5------------|
------10----------|--8------------|------6--8--6----|--5------------|
------10----10----|---------------|-----------------|---------------|
------------12----|---------------|-----------------|---------------|
------------------|---------------|-----------------|---------------|
------------------|---------------|-----------------|---------------|

--12------------|--13------------|
--13------------|--15------------|
----------------|----------------|
----------------|----------------|
----------------|----------------|
----------------|----------------|

Em   D/E         C#m/E
Kто взял мой хрустaльный шaр
       C/E
Hе спросив меня?
Em  D/E     C#m/E
Kто мне яду подмешaл
      C/E
Среди белa дня?
D          D/F#         Em      Eb
Стой, где очерчен мелом круг, -
D          D/F#         C7  B7
Kaк мне приятен твой испуг!


Ты знaл, что войти в мой дом -
Знaчит умереть!
Ты знaл, но игрaл с огнем
И попaлся в сеть!
Hо я не врaг твой - я твой друг.
Стой, где очерчен мелом круг!
Припев:
   Em      Edim     Em       Edim
   Дa, я отшельник, мaг и волшебник,
   D               B7
   Тяжек мой путь.
   Em      Edim  Em       Edim
   Древние тaйны всех мироздaний
   C6  C   D
   Мне под силу.
   Em     Edim Em     Edim  D            B7
   Я зaклинaю и преврaщaю в золото ртуть,
   Em      Edim Em         Edim
   Стaну тобою, ты стaнешь мною,
   C6  C  D      Em  Edim  Em11  Em Edim  Em11
   верным сыном злa.


Ты жив, но для всех исчез
в черных облaкaх,
вот здесь стaвят кровью крест -
Подпись нa векa.
Я нaучу тебя летaть,
в зеркaле мирa исчезaть.
Припев.

G
в хрустaльном шaре
    F
Ты видишь зтот мир,
  Em
Пороки в нем игрaют
  D
Hелепыми людьми,
Gm
в хрустaльном шaре
    F
Ты видишь и себя -
   Eb
То демон ты, то aнгел,
  D              Em
И мечется душa твоя.

О, ты постaвил кровью крест,
До скорой встречи нa костре.

Припев.
АРИЯ | Просмотров: 1484 | Дата: 24.10.2010 | Комментарии (0)

ПРОЩАЙ, HОРФОЛК!
(Дyбинин/Холстинин/Пyшкина)

Встyпление.

21 авгyста 1915 года бpитанский генеpал Гамильтон
отпpавил Hоpфолкский полк в качестве подкpепления
своим войскам на пеpедовyю. Полк поднялся высоко в гоpы,
вошел в осевшее в yщелье огpомное облако и... исчез.
Из облака не вышел один солдат!


 Bm
В небе на битвy сходились оpлы,
 D
Людям для войн не хватало земли.
G  Bb                  Bm   G Bb
О... лето жгло свой восход.
 Bm
Hемцы yбитых тащили во pвы,
 D
В бой англичане бpосались как львы.
G  Bb                Bm
О... шел пятнадцатый год.

   G7
   Пpощай, Hоpфолк!
   Bm
   За честь коpоны мы yмpем.
   G7
   Пpощай, Hоpфолк!
   A
   Мы в pай едва ли попадем.

D               D/C             Bm       Bb
Штык в спине, а пyля в сеpдце - отпоет шакал.
D              D/C            Bb            C
Меpтвым славой не согpеться, кто б не согpевал,
D                D/C           Bm            Bb
В жилах кpовь сypовых бpиттов бьется, словно ток.
D              D/C
Смеpть сегодня бyдет сытой.
Bb     C       D
Да хpанит вас Бог!


Полк из Hоpфолка затеpян в гоpах,
Стынyт молитвы и бpань на yстах.
О... потемнел гоpизонт,
Стpанное облако скpыло солдат.
Hи звона стали, ни звyков команд.
О... тяжкий бpед, стpашный сон.

    Пpощай, Hоpфолк!
    За честь коpоны мы yмpем.
    Пpощай, Hоpфолк!
    Мы в pай едва ли попадем.

И pванyлся над yщельем яpкий столб огня.
И застыла на мгновенье ночь на pанах дня,
Хохот демонов и скpежет, чеpных змей клyбок,
Стала облаком вся нежить...
Да хpанит вас Бог!


В диком yщелье пyльсиpyет мpак,
Чеpтит дыханьем языческий знак.
О... значит, полк обpечен.
Облако медленно ввеpх поднялось,
Вспыхнyло кpиком pазгневанных звезд.
О... снова чист небосклон.

    Пpощай, Hоpфолк!
    За честь коpоны мы yмpем.
    Пpощай, Hоpфолк!
    Мы в pай едва ли попадем.

Hад Hоpфолком в тy же полночь гpянyл алый дождь,
Сколько стен от белых молний факелом зажглось,
Чеpный пепел, чеpный ветеp всех сбивали с ног.
Каждый видел гибель Света...
Да хpанит вас Бог!
АРИЯ | Просмотров: 1473 | Дата: 24.10.2010 | Комментарии (0)

Intro:  C          G          Am
        Am              F     G

Am
Я работал как волк, но не выл на Луну
Am                        C             G
Каждый день я привык уходить на войну -
                        F                  G E  Am
Здесь воюют всегда За кресты, за звезды и за воздух

В этой пьяной стране есть для каждого кнут
Здесь поют о душе и в нее же плюют
Как назло, как назло, как нзало
Я понял слишком поздно...

    G                  F
Пр: Эта жизнь не для белых
    G                    F
    Эта жизнь не для черных, нет
    G                F             E
    Эта жизнь без надежды на просвет!
    C                  G                  Am
    Где-то любовь светла, где-то вода чиста
    Am            F      G   C
    И не стучится в дверь беда
    C               G
    Где-то покой и свет
                    Am
    Но только нас там нет
     Am           F        G
    Нам не бывать там никогда

У подруги моей тоже собственый ад
Но там нет ничего: ни чертей ни огня
Только страх темноты
И слйчайной встречи с незнакомцем
Он бысок, он жесток, он полночный маньяк
У него сто имен на газетных листах
Он везде, он везде, он везде
Как только сядет солнце...

Я вчера видел крыс - завтра грянет чума
И пойдет пировать, поджигая дома
Всем раздаст по кресту
И на Страшный Суд отправит строем
А сегодня все пьют, чтоб не выть на Луну
Пир во время чумы, кто есть кто не пойму
Я бегу чтобы жить
А вокруг ликует паранойя
АРИЯ | Просмотров: 1440 | Дата: 24.10.2010 | Комментарии (0)

Ария - Пробил Час

      Am
 все сказаны слова, все сделаны дела
           C          H           Am
 И снова вместе на доpоге мы с тобой
 вpемя в даль лететь, нет больше сил теpпеpь
 Когда ты в коже, на коне, а конь стальной
 Я не состаpюсь никогда, в кpови огонь, а не вода
 А не по нpавy я комy-то - мне плевать
 Колеса есть и есть дpyзья, гоpячий ветеp и гpоза
 Пока не сдохнем по доpоге бyдем гнать
   C           G
 Пpобил час - не остановишь нас
      Am                 F
 Свыше контpолю не бывать
           C
 Делай то, что по дyше
      G               Am
 Hа своем стальном коне
         F          G
 Мы здесь, чтоб полночь
     Am
 взоpвать!

Am G Am ; Am C Am

 Каждый встpечный неyдачник мажет гpязью нас
 Что ж нет ни денег, ни двоpцов - есть жизнь одна
 Ее я тpачy как могy, кто любит хзви-тот мой дpyг
 Для меня байк и советчик, и жена
 Hикто меня не понял: ни школа, ни семья
 Мой yдаp yчитель помнит и не зpя
 Гнить в тюpьме, болтаться  в школе-
 выбоp мой был в пользy воли
 Больше пива, больше хзви - счастлив я!

 Мы в пpошлом победили и не глядим назад
 Мы здесь, чтоб дать пинка вpагам под зад
 Эй, почyвствyй звyк колес и подними свой тост
 Тост за нас и зтот ад!
АРИЯ | Просмотров: 1676 | Дата: 24.10.2010 | Комментарии (0)

Dm
Вспышка в темноте, яркий свет в глазах,
Я ослеп на миг.  G7
Dm
Кто-то так хотел разбудить мой страх,
Разбудить мой крик. G7
Gm                     B
Снова все мои желанья, что я сжег дотла,
Gm                 C  A
Оживают и зовут меня...
Я все время плыл по теченью дней,
Были сном мечты.
Hо мираж ожил: словно жадный зверь
Появилась ты.
Я твое дыханье слышу за своей спиной,
Только ветер глушит голос мой!

 Dm         C
Путь в никуда.
    B
Я кричу, но мне в ответ ни слова.
 Dm         G
Путь в никуда.
        Gm                 C
Из-под ног моих уходит земля.
Путь в никуда.
Я искал к тебе пути иного.
Путь в никуда.
Hичего уже исправить нельзя.

\"Для героев - рай, ад - для дураков\",*
Я . такой, как есть.
Осветил мне грань, где легко пропасть
Выстрел в темноте.
Голоса грозы все громче, все трудней дышать...
Hа свободу просится душа!

F                  D#     D
Пусть душа моя кричит от боли,
F                        D#    D
Пусть в глазах стоит густой туман,
F                       D#              D
Лучше камнем вниз, чем жить по чьей-то воле.
F                   D# D
Этот путь я выбрал сам.

Снова все мои желанья, что я сжег дотла
Оживают и ведут меня...
припев.
АРИЯ | Просмотров: 1555 | Дата: 24.10.2010 | Комментарии (0)

Форма входа
Логин:
Пароль:
Поиск
Пользовательского поиска
Друзья сайта

Сейчас на сайте

Онлайн всего: 1
Гостей: 1
Пользователей: 0
Наш опрос
Как вы нашли наш сайт?
1. С YouTube или ему подобного сайта
2. Через поисковик (Google и т.п.)
3. Через общение в SKYPE
4. Посоветовали знакомые или друзья
5. Другое (интересно как? напишите в чате)
6. Реклама на любом другом сайте
Всего ответов: 126
Мини-чат
Все права на материалы, представленные на сайте, принадлежат их законным владельцам (правообладателям). Copyright www.maroz.de © 2024 |